Yo

Victor Victor

Genero: Pop

Tablatura (Ver letra)

Punteo Inicial:  ( D Em7 G9 D / )         %%
1-10-------------------------10-------------------------------
2-10-------------------------10----------12.------------12-10-
3-11----9-11-9.-11/12-11--9--11----9-11-9---11+12-11-9--------
4-12-12------------------12--12-12--------------------12------
5-12-------------------------12-------------------------------
6-10-------------------------10-------------------------------

D Em7 G9 D Em7 G9
Yo tengo derecho a soñar con tu recuerdo.Yo,no necesito verte para
D Bm Bm/A Bm Bm/A
ser tu dueño.Tengo la fuerza del amor,para llegar adonde estas.
G A
Mi corazon ya tiene alas y te puede hallar.
D Em7 G9 D Em7
Yo puedo tocarte con mi fe desde muy lejos.Yo puedo besarte a
G9 D Bm Bm/A Bm Bm/A
traicion,desde el silencio.Con tu sombra siempre voy.Entre tus manos
G A
soy calor.Voy caminando ante tus ojos,cuando quiero.
CORO:
G A D Bm/A G A D Bm/A
Soy tu secreto preferido, Tu mas valiente enamorado
G A D Bm C C9 A A7
Voy susurrando en tus oidos,aquellos sueños ya olvidados.
***** Punteo inicial *****

Yo soy el eco de tu voz y de tus dias.Soy el dibujo en tu pared,

que te acaricia.Duermo en tu esquina mas cercana.Yo vivo y muero

entre tus huellas,y te despierto en las mañanas,de recuerdos. CORO
PUNTEO FINAL:(Igual que el anterior,hasta el %%,y finaliza con este)
1---------------------------------------
2-8-7-5---------------------------------
3------7-7-6-4--------------------------
4--------------7-7----------------------
DEFINO ACORDES: Bm=799777 Bm/A=X 12 X 11 12 10
Em7=022030 G9=320203 C9=X32030