Bachata En Kingston

Vicente García

Genero: Non-music Pop

Tablatura

INTRO: F#m-Bm

E|-----9----9----9-10-9-----|-------------------------------
B|---10---10---10------10---|---7--7--7-10-9-9--7-----------
G|-11---11---11----------11-|--7--7--7----------------------
D|--------------------------|-9--9--9-----------------------
A|--------------------------|-------------------------------
E|--------------------------|-------------------------------

E|-----9----9----9-10-9-----|-------------------------------
B|---10---10---10------10---|---7--7--7-10-10-9-9-7-7-------
G|-11---11---11----------11-|--7--7--7----------------------
D|--------------------------|-9--9--9-----------------------
A|--------------------------|-------------------------------
E|--------------------------|-------------------------------

ESTROFA
F#m
Siembro, tiro la semilla
Bm
y disfruto el fruto, rompo las cadenas
F#m
siembro pa\' que vuelva y que me resuelva
Bm
y para que vuela, rico pa\' que vuelvas

PRE-CORO
C#7
Y se me acercó
F#m
y bailamos bachata
C#7
pensé en sus labios rojos
F#m
ayer y hoy
C#7
Y ahora recuerdo esa noche
F#m
y yo me muero de dolor
y me consume de a poco
pensar que este bailando con otro

CORO
Bm
Como loco me quede esperando
F#m C#7 F#m
el humo de su boca y se perdió, por bailar de tan lejos
Bm F#m
y como loco me quede esperando
C#7 F#m
que no pude arrebatarme ese beso
Que mi boca se enrede en su boca
y que a la ves sea una buena señal, de que si
que ella es la que sana mi interior
me brinda la calma y mi fe tiene un eco

ESTROFA
F#m
En calma, con o sin semilla
Bm
sigo en el intento, esperare a que vuelva
F#m
y no se acuerda, pa\' que no se pierda
Bm
saque de la selva, ritmos pa\' que mueva

C#7
Duro que da el song
F#m
y que bailemos bachata
C#7
pensé en sus labios rojos
F#m
ayer y hoy
C#7
Y ahora recuerdo esa noche
F#m
y yo me muero de dolor
y me consume de a poco
pensar que esté bailando con otro

CORO
Bm
Como loco me quede esperando
F#m C#7 F#m
el humo de su boca y se perdió, por bailar de tan lejos
Bm F#m
y como loco me quede esperando
C#7 F#m
que no pude arrebatarme ese beso
Que mi boca se enrede en su boca
y que a la ves sea una buena señal, de que si
que ella es la que sana mi interior
me brinda la calma y mi fe tiene un eco

Bm C#m F#m
Yo quería ver tus ojos
yo quería sentir tu olor
y en el soundsystem estuvo(?
Bm C#m F#
alguien me dijo que te vio

Bm F#m
Yo toco mi bachata en Kingstons canta un bongo
C#7 F#m
pongame la güira que se escucha allá en el congo
griten en bom bom class, que se meta en este amargue
y este ritmo que suena perfecto pa\' tu baile
Díganle que vuelva, que yo me quede
tocando bachata y cantando reggae
díganle que vuelva, que yo me quede
tocando bachata y pensando reggae


F#m F# Bm C#7 C#m
e|-------9-------9-------7-------9-------9-------------------------
B|-------10------11------7-------9-------9-------------------------
G|-------11------11------7-------10------6-------------------------
D|-------11------11------9-------9-------6-------------------------
A|-------9-------9-------9-------11------4-------------------------
E|-------9-------9-------7-------9-------9-------------------------