Sin Engaños

Verdades Parias

Genero:

Tablatura

La cancion originalmente esta Afinada toda en RE
Aca esta como para tocarla en MI
Los dibujos son los MISMOS para ambas afinaciones

Riff 1
1|----------------|--------------------|----------------|-------------------|
2|--1-----1------1|---1p0-----1p0-----1|---0-----0-----0|---1p0------3-----3|
3|----2-----2-----|-------2-------2----|-----0-----0----|-------2------4----|
4|------2------2--|-3-------3-------3--|-------0-----0--|-3-------3------5--|
5|-0--------------|--------------------|----------------|-------------------|
6|----------------|--------------------|-3--------------|-------------------|


Sobre Riff 1
Quiero mirar atras
y ver que no te has ido ya
Que no entregaste tu ser
despues de tanto andar

Si buscas en ojos de quien
la imagen mas real
Y viste que miran sin ver
copian modelos para armar

Am F C
Fingir estar sin ser
G
Es ignorar la Verdad
Am F
Sentiste amor por ti
G Em......
Y es solo Comenzar

Riff 2

Am F G Em Am F C
1|------------------------------------|--------------------------------------|
2|------------------------------------|--------------------------------------|
3|-------5----------------------------|-------5------------------------------|
4|-2-5-7---7~--7-5-3~~--2-3-5~-5-3-2~-|-2-5-7---7~--10-10~--14-14~-15-14-12~-|
5|------------------------------------|--------------------------------------|
6|------------------------------------|--------------------------------------|

Am F G Em Am F C G
1|-----------------------------------|--------------------------------------|
2|-----------------------------------|--------------------------------------|
3|-------5---------------------------|-------5------------------------------|
4|-2-5-7---7~--7-5-3~--2-3-5~-5-3-2~-|-2-5-7---7~--10-10~--14-14~-15-14-12~-|
5|-----------------------------------|--------------------------------------|
6|-----------------------------------|--------------------------------------|


Con Machaque
Am F
Años me dejaron Andar
C G
para ver amor y Crueldad
Am F
Ojos que niegan Mirar
G Em
y voces que niegan Hablar



Am F C
Fingir estar sin ser
G
Es ignorar la Verdad
Am F
Sentiste amor por ti
G Em
Y es solo Comenzar

Am F C
Fingir estar sin ser
G
Es ignorar la Verdad
Am F
Sentiste amor por ti
G Em.............
Y es solo Comenzar

Am F C G
1|---------------------------------------------|
2|---------------------------------------------|
3|---------------------------------------------|
4|-7~~-9-10--7~~-9-10--7~~-9-10-10/12--10-9----|
5|------------------------------------------10-|
6|---------------------------------------------|

Am F G Em
1|-----------------------------------|
2|-----------------------------------|
3|-----------------------------------|
4|-7~~-9-10--7~~-9-10--7~~-9-10--9~~-|
5|-----------------------------------|
6|-----------------------------------|


2da Viola
4|-10~~-12-14--10~~-12-14--10~~-12-14-14/15--14-12----|
5|-------------------------------------------------14-|

4|-10~~-12-14--10~~-12-14--10~~-12-14--12~~-|
5|------------------------------------------|


Final
1|------------------------------0-------------------------|
2|-----------------------0---0-----0-----0----------------|
3|--4-5-7-9-~~-9--4--5-1---1----------1-----5-4-2--4-4--1-|
4|--5-7-9-10~~-10-5--7-2--------------------7-5-3--5-5--2-|
5|------------------------------------------------------2-|
6|------------------------------------------------------0-|