Por Principios

Verdades Parias

Genero:

Tablatura

Para tocar este temazo de Verdades Parias.
Recomiendo afinar las 6 cuerda en RE. Facilita el tramite del arpregio
El resto de las cuerdas con la afinacion normal de MI.

Intro:
G F D# D
1|---------------|---------------|---------------|---------------|
2|--------3----3-|--------3----3-|--------3----3-|--------3----3-|
3|-----3----3----|-----3----3----|-----3----3----|-----3----3----|
4|---5---5----5--|---5---5----5--|---5---5----5--|---5---5----5--|
5|---------------|---------------|-6-------------|-5-------------|
6|-5-------------|-3-------------|---------------|---------------|


Nota 1: Solo cuando comienza el tema repite dos veces la parte de RE.
La primera normal y la seguda bajando la velocidad.
Nota 2: Recordar que la 6 cuerda va en RE.
De manera que si tocamos en el 5to traste de la 6ta cuerda,
No sera un LA sino SOL.

Riff: Escuchar el tema para sacar el ritmo con estas 4 Notas

G5 F5 D5# D5
1|---| 1|---| 1|---| 1|---|
2|---| 2|---| 2|---| 2|---|
3|---| 3|---| 3|---| 3|---|
4|-5-| 4|-3-| 4|-1-| 4|-0-|
5|-5-| 5|-3-| 5|-1-| 5|-0-|
6|-5-| 6|-3-| 6|-1-| 6|-0-|


Sobre el Arpregio del Intro:
Esta estampida
ha olvidado los principios
que es tener conciencia
en tu dimension
si te sientes solo
si te quedas solo
nunca olvides sonreir
aunque el llanto este en tus ojos

Riff

Sobre el Arpregio del Intro:
si lo adverso te sorprende
que a tus suenos no maltrate
veras tu conducta
y sentiras valor
no especules nunca
sobre la manmo tendida
no tendras un precio
que puedan pagar

Riff
si la vida te dicta rodar

Solo

Sobre el Arpregio del Intro:
tentaran tus asnsias
con mil vanidades
guiaran tu fuerza hacia la division
no especules nunca
sobre la manmo tendida
que a tu vida no consuma tanta tentacion

Riff
si la vida te dicta rodar
trata que sea de pie
si la vida te dicta tu andar
eso marcara tu honor y fe

Solo

B A vida
si la vida te dicta tu andar

Fade Out...