Entender

Verdades Parias

Genero:

Tablatura

Para q el tema suene bien se afina toda la viola en RE!!

Intro
Gm
1D|---------|-----------|
2A|---------|---------5-|
3F|-----5---|-----5-----| X2
4C|---7---9-|---7---9---|
5G|---------|-----------|
6d|-5-------|-5---------|

Riff 1
1|------------------------------------
2|--------------------------5---------
3|-----5-----5---5------5-----5---5--- X2
4|---7---7-9---7------7---7-----9-----
5|------------------------------------
6|-5----------------5-----------------


Riff 2
Gm D D# F
1|----------------------------------------
2|----------------------------------------
3|-------5--------0---------2--------4---- X2
4|---5h7---7----2---2-----3---3----5---5--
5|----------------------------------------
6|-5----------0---------1--------3--------

Riff 1 x1

Sobre Riff 2
Me fue alguna vez tan difícil seguir
por no entender, el para que de mi existir
si fue capricho tal vez, de esta vida que me alzo
y me a traido hasta aquí para que pudiera ver


Riff 1 X2

Sobre Riff 2
Miradas que nada ven, actitudes que complacen
dentro de un ciclo que quiebra, todo lo que construyo
intereses personales, generan esta prisión
transforma en vano los placeres, la verdad del corazón

Riff 1 X2

Riff 3
1|-----------------------|-------------------------
2|-----------------------|-------------------------
3|-----------------------|-------------------------
4|---------------7/8-75-|---------------7/8--7-7--
5|-5/7-X-7-X-7-7-5/6-53-|-5/7-X-7-X-7-7-5/6--5-5--
6|-3/5-X-5-X-5-5---------|-3/5-X-5-X-5-5-----------


Sobre Riff 3
Una vez mas voy por la cuenta
de lo vivido que es prestado hasta pagar
si ven mis ojos mal que me pese
pago al sentirlo no ocultando la verdad


SOLO

Sobre Gm - d - D# - F



Riff 1 X2

Sobre Riff 2
Amor necio y desenfreno, descontento y represión
reencarnados en el barro, donde todo comenzó
angustiaba el no saber, cuando algo se entendió
esperar que llegue el día, y morirse casi al sol



Riff 1 X2

Sobre Riff 3
Dictara el tiempo la cantidad
prestar espacios en donde andar
serán mil risas, serán mil llantos
son tantos soles....

Gm - F - D# - D

un amanecer,

Gm - F - C5m - D5m

Un amanecer....



FINAL SOBRE Gm - d - D# - F
Si te puedes caer, te puedes levantar
no podrán doblegar, el árbol que esta en pie
si te puedes, te puedes caer, te puedes levantar
no podrán doblegar, el árbol que esta en pie


TERMINA CON Riff 1