Delante De Tu Presencia

Verbo Y Vida

Album: Delante De Tu Presencia
Genero: Rock

Tablatura (Ver letra)

PUNTEO…DE INTRODUCCIÓN
Notas de acompañamiento:

Dm F
E|----------------|------------------|
A|----------------|------------------|
D|----------------|------------------|
G|5-7-7-9-10-9-10-|7v----5-7-9s-10v--|
B|----------------|------------------|
e|----------------|------------------|
E Dm
E|----------------|-------------------|
A|----------------|-------------------|
G|-10-9-10-9v-----|5-7-7-9-10-9-10-7v-|
B|----------------|-------------------|
e|----------------|-------------------|
F Gm Dm
E|---------------|-----------------------|
A|---------------|-----------------------|
G|-5-7-9-10hv----|-----------------------|
B|---------------|10s-8-10-8v--10--------|
e|---------------|---------------8h8h8h8h|

Este intro esta por la nota "D" (RE)
La guitarra electrica debe tener distorcion,
con un poco de delay (eco)

Dm F C F
DELANTE DE TU PRESENCIA, (si yo) QUIERO ADOORAR
C Gm A# A
DANZAMOS Y EXALTAMOS, ES NUESTRA LIBERTAD OHOHO

(BIS)

Coro

D7 Gm C F Dm
HO MANDA EL FUEGO, MANDA EL FUEGO DE LOS CIELOS
Gm C F Dm
JESUCRIISTO LLENA HOY MI CORAZÓN
D7 Gm C F Dm
SANTO, SANTO ESPIIRITU BIENVENIDO A ESTE LUGAR
Gm A#ADm
VAMOS TOODO, ADORAR

Se repite como 4 veces toda la canción


La nota original esta por Fm, pero yo la deje en Dm
ya que es mucho mas facil de cantar.


saludos y que Dios los bendiga.
ATT: Iglesia pentecostal unida de Colombia
(Neiva)las palmas
Jeferson Moreno Cabrera
Group: Atalayas De Sion

=)