Quien Es

Verano 98

Genero:

Tablatura

Intro:

e|--------2-0---5--
B|-----------------
G|-----2-----------
D|--0--------------
A|-----------------
E|-----------------

e|-------2-0---5---
B|----3------------
G|---2-------------
D|--0--------------
A|-----------------
E|-----------------

e|--7--5--7----3-5-
B|-----------------
G|-----------------
D|-----------------
A|-----------------
E|-----------------


D F#m Bm G E A
Él se parece a mí, tiene para darte lo que no te di
Bm F#m Bm E A
Él es como yo fui, te ama con locura como te amo a ti

D F#m Bm G E A
Él te invadió la piel, pero no te conoce, ojos de papel
Bm F#m Bm G A D
Él no vivió tu historia ni te tiene en su memoria ni te hizo mujer


Estribillo:

D A Bm F#m G B
Quién es, que se lleva tu sueño, quién es que se robó mi amor
Em A F#m Bm E G A
Quién es, cómo entró sin permiso, hizo lo que quiso con tu corazón
D A Bm F#m G B
Quién es, dónde lo conociste, quién es, qué promesas le hiciste
Em A D
Quién es, que te hace adolescente
Bm G A D
que entiende lo que sientes, quién es él


Repetir Intro

D F#m Bm G E A
Él te llenó de amor, me arrancó la vida, se llevó la luz del sol
Bm F#m Bm G A D
Él tiene lo mejor, tiene la ventaja de llegar después de yo


Estribillo:

D A Bm F#m G B
Quién es, que se lleva tu sueño, quién es que se robó mi amor
Em A F#m Bm E G A
Quién es, cómo entró sin permiso, hizo lo que quiso con tu corazón
D A Bm F#m G B
Quién es, dónde lo conociste, quién es, qué promesas le hiciste
Em A D
Quién es, que te hace adolescente
Bm G A D
que entiende lo que sientes, quién es él


Espero que les guste, ante cualquier duda
pueden escribirme a franciscotc90@hotmail.com