Enamorado De Tí

Veneno

Genero:

Tablatura

Este tema se lo dedico a mi chica!!! Viviana Ángela, nos
conocimos con este tema y por eso es muy especial para mí,
trate de sacarlo lo mejor posible, espero les guste!!!
Introducción:

e |-------------13-13-13-13-13-12-10---------------------------
B |----------------------------------13---13-12-13-15-15-15-15-
G |-10-10-10-10------------------------------------------------
D |------------------------------------------------------------
A |------------------------------------------------------------
E |------------------------------------------------------------

e |-----------------------------------------------------13-13--
B |-15-15-15-15-15-15-13-11-10--10-----------------------------
G |--------------------------------12-9-10-*10-10-10-10--------
D |------------------------------------------------------------
A |------------------------------------------------------------
E |------------------------------------------------------------

e |-13-13-13-12-10---------------------------------------------
B |----------------13---13-12-13-15-15-15-15-15-15-15-15-15-15-
G |------------------------------------------------------------
D |------------------------------------------------------------
A |------------------------------------------------------------
E |------------------------------------------------------------

e |------------------------
B |-13-11-10--10-----------
G |--------------12-9-10--- Donde está el “*” está repitiendo
D |------------------------ otra vez la introducción
A |------------------------
E |------------------------

Riff
e |---------------5--13-12-13-12-----------
B |-------5-6-5-6----------------15-13-----
G |-7-6-7------------------------------12--
D |----------------------------------------
A |----------------------------------------
E |----------------------------------------


F C
Quiero de tu boca esa furia loca
Dm Am
Esa furia que me está matando
F C
Quiero de tus ojos tan iluminados
Dm Am
Una luz que borre todo mi pasado

C Dm
Mujer fatal, mujer sensual [Riff]
C Dm
Extremadamente ilógica
C Dm
Dramatizas todos tus movimientos [Riff]
C Dm
Pero no comprendes lo que yo siento

Para esta parte los acordes son Rem y DoM
como en la parte de abajo.

Estoy enamorado enamorado de ti [x8]
Guitarra
Parte 1
e |-10-13-13-13--10-13-13-13--10-13-10-12-12--8-12-12-12-------
B |------------------------------------------------------------
G |------------------------------------------------------------
D |------------------------------------------------------------
A |------------------------------------------------------------
E |------------------------------------------------------------

e |-8-12-12-12--8-12-8-13-13----
B |-----------------------------
G |----------------------------- Se repite desde la Parte 1
D |----------------------------- hasta aquí, corrido!.
A |-----------------------------
E |-----------------------------
Parte 2
e |---------------------------------------------------------
B |-6-10-10-10--6-10-10-10--6-10-6-8-8--5-8-8-8--5-8-8-8----
G |---------------------------------------------------------
D |---------------------------------------------------------
A |---------------------------------------------------------
E |---------------------------------------------------------


e |----------------
B |-5-8-10-*10-----
G |---------------- Se repite desde la parte 2, pero
D |---------------- al final solo se toca una vez *10
A |----------------
E |----------------
F C
Quiero de tu boca esa furia loca
Dm Am
Esa furia que me está matando
F C
Quiero de tus ojos tan iluminados
Dm Am
Una luz que borre todo mi pasado

C Dm
Mujer fatal, mujer sensual [Riff]
C Dm
Extremadamente ilógica
C Dm
Dramatizas todos tus movimientos [Riff]
C Dm
Pero no comprendes lo que yo siento

Estoy enamorado enamorado de ti [x8]
Guitarra
Se toca exactamente igual que arriba.

Dm C
Estoy enamorado... ni un besito me das
Dm
Estoy enamorado... ni un poquito de amor
C
Estoy enamorado... ni un poco de calor
Dm
Estoy enamorado... dame dame tu amor
C
Estoy enamorado... ni un besito me das
Dm
Estoy enamorado... ni un poquito de amor
C
Estoy enamorado... ni un poco de calor
Dm
Estoy enamorado... dame dame tu amor

Guitarra:
Parte 1 Se toca exactamente igual que arriba
Parte 2
e |---------------------------------------------------------
B |-6-10-10-10--6-10-10-10--6-10-6-8-8--5-8-8-8--5-8-8-8----
G |---------------------------------------------------------
D |---------------------------------------------------------
A |---------------------------------------------------------
E |---------------------------------------------------------


e |----------------------
B |-5-8-10-10---10-8-10--
G |----------------------
D |----------------------
A |----------------------
E |----------------------
La primera vez la parte 2 se toca igual que arriba, pero al
terminar se la toca asi!

Cualquier duda o sugerencia a mi correo x0_Kenneth_0x@hotmail.com
y un saludo para todos mis amigos de la Facultad de Ingeniería de
A UMSA