Pierdo El Control

Vendetta

Genero:

Tablatura

Riff (se repite todo el tema):
e|----------------------------
b|----------------------------
g|----------------------------
d|---2-2-----------2----------
a|---2-2----------------------
E|---0-0--3--4--5-----5--3----


Puedes entender que es lo que pienso
pero nunca vas a sentirlo bien
no me pidas mas consejos
siempre hago lo que no debo hacer

B A Riff
Sin excusas me voy
vengo y pierdo el control

Me encierro entre 4 paredes
tomo pensamientos que nunca tendría
un, dos, tres, cuatro, cinco, seis, siete
yo ya no temo tengo el poder


Sin excusas me voy
vengo y pierdo el control

Em
**sobre Punteo**
Estoy aquí, pero a mi cuerpo no lo siento
que hago aqui?
es que mi cuerpo es un invento de mi


Sin excusas me voy
vengo y pierdo el control

**punteo:
e|-------------------------------------------
b|----9-9-9-9---10-10-10---9-9-----7---7--9--
g|----9-9-9-9---9--9--9----9-9--9----9----9--
d|-------------------------------------------
a|-------------------------------------------
E|-------------------------------------------