Eres Tu

Veinte Veinte

Genero:

Tablatura

Acá les va un gran tema que me pidieron.
Un saludos a Gonzalo (Concepción Chile)


Intro:
C G Am F C
e|--------------------------------------------------
B|--6/8-6---3---6/8-6-5-----------------------------
G|--------5-------------5----5-4-------------------- (Se repite
D|-------------------------------5-5----3-2--------- 2 veces)
A|------------------------------------------3-3-----
E|--------------------------------------------------


C9 G Am
Nadie como tu me conoce mas
F C9
Sabes lo que guarda mi corazón
G Am
Mi respiración la controlas tu
F C
Y mi voz solo se escucha por ti

Bb F
Tu eres mi refugio
G F G
Enamora mi alma.

Coro:
C9 G Dm
Eres tu la luz en la oscuridad
Am G C
Es tu voz me sanas cuando quiero volar
G Dm
Si preso estoy, tu mi libertad
Am G F
Todo lo que quiero y que puedo soñar
C
Eres tu. Huuu huuu eres tuuu

G Am F C
e|--------------------------------------------------
B|--6/8-6---3---6/8-6-5-----------------------------
G|--------5-------------5----5-4--------------------
D|-------------------------------5-5----3-2---------
A|------------------------------------------3-3-----
E|--------------------------------------------------

C9 G Am
Nadie como tu me conoce mas
F C9
Sabes lo que guarda mi corazón
G Am
Mi respiración la controlas tu
F C
Y mi voz solo se escucha por ti

Bb F
Tu eres mi refugio
G
Enamora mi alma.
Coro:
C9 G Dm
Eres tu la luz en la oscuridad
Am G C
Es tu voz me sanas cuando quiero volar
G Dm
Si preso estoy, tu mi libertad
Am G F
Todo lo que quiero y que puedo soñar
C
Eres tu.
F C
Hoy puedo acercarme a ti
F C
El velo se rompió
F C
Ya nada nos separara
F G A
Tuyo soy

Coro
D A Em
Eres tu la luz en la oscuridad
Bm A D
Es tu voz me sanas cuando quiero volar
A Em
Si preso estoy, tu mi libertad
Bm A D
Todo lo que quiero y que puedo soñar

D A Em
Eres tu la luz en la oscuridad
Bm A D
Es tu voz me sanas cuando quiero volar
A Em
Si preso estoy, tu mi libertad
Bm A G
Todo lo que quiero y que puedo soñar
D
Eres tu A Bm G D

e|--------------------------------------------------
B|--8/10-8---5---8/10-8-7---------------------------
G|--------7-------------7----7-6--------------------
D|-------------------------------7-7----5-4---------
A|------------------------------------------5-5-----
E|--------------------------------------------------


Bueno alto tema este.. Espero q les guste.. es un hermoso
Tema de 20/20. Trate de sacarlo lo mas parecido posible a
Pedido de mi amigo de concepción chile.
Dios bendiga a la Iglesia Misión Iglesia Del Señor de
Villa la Angostura, Neuquén, Argentina.
Jaime. A. Soto
Jimmy_kpox100pre@hotmail.com / jaimevla@yahoo.com.ar