Sífilis En Do Mayor

Vecindad Autopsia

Genero:

Tablatura

Intro:

--------9-10-12-10-9--------------|
-10-12------------12-10-9---------|
----------------------------11-9*-|
----------------------------------|
----------------------------------|
----------------------------------|

--------------------------------------|
--------9-10-12-10-9---------------14-|
-10-12------------12-10-9-10-14--14---|
--------------------------------------|
--------------------------------------|
--------------------------------------|

E
En una casa de puta la conoci
A5
Tenia un culo gigante me hiso muy feliz

D5 E5
Fue un primo pajero el que nos presentó

A5-D5-A5
y desde entonces ella me envició

E
Me decían que le tenia que dejar

A5
Pero yo ni ka’ure le iba a escuchar

D5-E5
Y cada vez que le veía

A5-D5-A5
mi anatomico se descocia

E5 - D5
Sacate un poquito tu ropa interior

A5
Que esta noche no puedo parar

E5
Electocutate con tu vibrador

D5
Quiero sentir la emoción

A5-D5-A5
Sifilis en do mayor

E
Pero un día amenecí mal

A5
Con unas manchas raras en mi genital

D5-E5
Y ahora ese tembi’u del pueblo

A5-D5-A5
Me mando al hospital.


PD: Ni ka’ure (ni borracho , ni en pedo)
Tembi’u (comida)