Un Minuto Atrás

Vaquero

Genero:

Tablatura

Esta cancion lleva un auto wah en el verso
y se escucha igualito.

intro
Guitarra 1
----------------8-----8----------------------
-----10-------10----10-----------------------
--7/9---------------------------------------- X4
---------------------------------------------
---------------------------------------------
---------------------------------------------

---

Guitarra 1
----------------8-----8----------------------
-----10-------10----10-----------------------
--7/9----------------------------------------
---------------------------------------------
---------------------------------------------
---------------------------------------------

Guitarra 2
A C F D
---------------------------------------------
---------------------------------------------
--6-----9------2-----7-----------------------
--7-----10-----3-----7-----------------------
--7-----10-----3-----5-----------------------
--5-----8------1-----5-----------------------


///////////////////

Verso:

A
hoy me desperte con la mitad
C
sigo intentando de explicar
E
lo que nos cambio
D
se desvanecio


A
me sorprende tu velocidad
C
alimenta tu curiosidad
E
fue tan rapido
D
se desvanecio

////////////////////////

Coro:

un minuto atras X2

Guitarra 1
----------------8-----8----------------------
-----10-------10----10-----------------------
--7/9---------------------------------------- X2
---------------------------------------------
---------------------------------------------
---------------------------------------------

Gutiarra 2
A C F D
---------------------------------------------
---------------------------------------------
--6-----9------2-----7-----------------------
--7-----10-----3-----7-----------------------X2
--7-----10-----3-----5-----------------------
--5-----8------1-----5-----------------------



/////////////////////////////////


Verso:

A
me castigue con la verdad
C
que ella nunca iva regresar
E
no se despidio
D
se desvanecio


A
hace falta una prioridad
C
que no pierda el tiempo en recordar
E
lo que nos fallo
D
se desvanecio

////////////////////////

Coro:

un minuto atras X2

Guitarra 1
----------------8-----8----------------------
-----10-------10----10-----------------------
--7/9---------------------------------------- X3
---------------------------------------------
---------------------------------------------
---------------------------------------------

Guitarra 2
A C F D
---------------------------------------------
---------------------------------------------
--6-----9------2-----7-----------------------
--7-----10-----3-----7-----------------------X3
--7-----10-----3-----5-----------------------
--5-----8------1-----5-----------------------



/////////////////////////////////

B A/B G E

--7-5-7------6---------7-5-7--10Ë-7-10-7-10-7-10Ë----
----------5-7-7/5--------------------------------12--
7------7Ë--------7-4---------------------------------
--------------------7-5------------------------------
-----------------------------------------------------
-----------------------------------------------------

B A/B G E

--7-5-7------6---------7-5-7--10Ë-12Ë-12Ë-12--12Ë----
----------5-7-7/5--------------------------------12--
7------7Ë--------7-4---------------------------------
--------------------7-5------------------------------
-----------------------------------------------------
-----------------------------------------------------


Verso: (sin guitarra)

hoy me desperte con la mitad
sigo intentando de explicar
lo que nos cambio se desvanecio
me sorprende tu velocidad alimenta tu curiosidad
fue tan rapido, se desvanecio



outro:

un minuto atras

Guitarra 1
-------17--17-20-17-20-----------------------
--15/17--------------------------------------
--------------------------------------------- X8
---------------------------------------------
---------------------------------------------
---------------------------------------------

Guitarra 2
A C F D
---------------------------------------------
---------------------------------------------
--6-----9------2-----7-----------------------
--7-----10-----3-----7-----------------------X2
--7-----10-----3-----5-----------------------
--5-----8------1-----5-----------------------


Notas:
El signo Ë significa jalar la cuerda arriba
para hacer una especie de slide para que suene
igual a la de la rola y / es una deslice..


Para todos los fans de vaquero, y en especial
para evelyn guadalupe leon sanchez. y zorayda M.R.
cualquier duda o comentario a zurdokmexico@hotmail.com