Sunshine

Vaquero

Genero: Pop

Tablatura

Intro de teclado:                                  Acordes  Quintas
e|--------------------------------------- E - 022100 X799XX
B|--------------------------------10--9-- F#m - 244222 244XXX
G|--9----9--11----11--9----9--11--------- F#m*- X44675 X91111XX
D|--------------------------------------- C#m - 446654 X466XX
A|--------------------------------------- A - 002220 577XXX
E|--------------------------------------- (estos de arriba son onces^)

e|--------------------------------------- <-- Fig. 1
B|---------------------------------------
G|--9-9-9-9-9-9-9-9-6-6-6-6-4-4-4-4------
D|--9-9-9-9-9-9-9-9-6-6-6-6-4-4-4-4------ Escuchen la canción atentamente
A|--7-7-7-7-7-7-7-7-4-4-4-4-2-2-2-2------ para agarrar bien el ritmo
E|--------------------------------------- de los versos

Los acordes son en quintas (usar todas las cuerdas tambien se oye bien)

Verso:
E F#m
Lately something is missing, maybe last time it was too easy
A C#m F#m C#m B F#m
Every time I try to let it out, just makes it worse
A F#m*
And you still keep waiting for more

Verso (igual):

Been in to many places maybe I didn´t get your message
Every time I try to bring you down t makes it worse
And you know I’ll never give up

Coro (x2):
E A
Sunshine, what´s taking you so long?
C#m F#m A
Sunshine, I just can´t wait no more

(Fig 1)

Solo:
e|-------------------------------------------------------------------------
B|-------------------------------------------------------------------------
G|-13-----------------------13---------------------------------------------
D|----14-----------------------14------------------------------------------
A|---------------14-16-14~----------------14-16~---------------------------
E|---------14-16--------------------14-16----------------------------------

e|-------------------------------------------------------------------------
B|-------------------------------------------------------------------------
G|----------------------------------------------------------13-------------
D|--14--14-13-14--16---14--14-13-14--16---14--14-13-14--16-----16--14~-----
A|-------------------------------------------------------------------------
E|-------------------------------------------------------------------------

e|------------------------------------------ NOTA: el solo no esta igual
B|------------------------------------------ que la cancion original, pero
G|------------------------------------------ si queda dentro de la escala
D|------13-14--14-13-14--16--16-16-16-16~--- de la rola
A|---16-------------------------------------
E|------------------------------------------

Verso (no lleva guitarra):
Lately something is missing maybe last time it was too easy
Every time I try to let it out, just makes it worse
And you know I’ll never give up

Por ultimo 4 coros y finaliza con rasgueo en E