Sueña Todo El Día

Vaquero

Genero:

Tablatura

La primera rola del disco

INTRO

Cm F
e ----------------------------------------------
B --3-4-3-4-3-----------------------------------
G -------------5-5-3-2-3-2-3-2------------------
D -----------------------------5-3--------------
A ---------------------------------5------------
E ---------------------------------------------- x 3

.. y en la cuarta vez
Cm F
e ----------------------------------------------
B --3-4-3-4-3-----------------------------------
G -------------5-3---3/5------------------------
D -----------------5----------------------------
A ----------------------------------------------
E ----------------------------------------------

Cm F
bajando ligera como una pluma
Cm F
cayendo desde el cielo
Cm F
pasa algún tiempo comprando flores
Cm F
a los ángeles por un poco de paz mental

ella..
Cm F
sueña todo el día
Cm F
sueña todo el día
ella..
Cm F
sueña todo el día
Cm F
sueña todo el día

Cm F
escribiendo hojas de papel
Cm F
lo que se pase por mi mente
Cm F
acostado, frio en el clima
Cm F
pensando extrañamente

D# D
ahhh si pudieras verme
D# D
ahhh si pudieras verme
D# D Cm
ahhh si pudieras verme ya
(Si pudieras verme ya)

SE REPITE INTRO

Cm F
bajando ligera como una pluma
Cm F
cayendo desde el cielo
Cm F
pasa algún tiempo comprando flores
Cm F
a los ángeles por un poco de paz mental

ella..
Cm F
sueña todo el día
(No puedo sacarla de mi mente)
Cm F
sueña todo el día
ella..
Cm F
sueña todo el día
(No puedo sacarla de mi mente)
Cm F
sueña todo el día

D# D
ahhh si pudieras verme
D# D
ahhh si pudieras verme
D# D Cm
ahhh si pudieras verme ya

D# D
ahhh si pudieras verme
D# D
ahhh si pudieras verme
D# D Cm
ahhh si pudieras verme ya
(Si pudieras verme ya)

A PARTIR DE ESTA PARTE EL INTRO VA DE FONDO

Cm F
oh soñadora
no puedo sacarla de mi mente
Cm F
oh soñadora
B pudieras verme


DEDICADA A AURA!