Un Par De Enamorados

Vagabun2

Genero:

Tablatura

para todos los rockeros enamorados
esta gran rola de el papas

este es el intro de la cancion
E---------------------------------------|
A---------------------------------------|
D---------------------------------------|
G--3------------------------------------|
B----0-2-3------------------------------|
e----------0-2-3--3/5-5---5-3-2-3-2-0---|


E---------------------------------------|
A---------------------------------------|
D---------------------------------------|
G-------------3-------------------------|
B-0/8-7-5-3-----0-2-3-------------------|
e---------------------0-2-3--3/5-3------|

una guitarra hace ese pequeño requinto
y otra taca estos acordes

introduccion: C Em F G

C Em
Llevo en mis labios el sabor de tu boca
Am Em
Y en mis manos el aroma y suavidad de tu piel
F C
Veo la miel que da color a tus ojos
Dm F G
No sé qué me está pasando voy a enloquecer

C Em
Eres lo mejor que ha pasado en mi vida
Am Em
Fue muy fácil haberme enamorado de ti
F C
Eres el ángel que vino a componer mi vida
Dm F G
Estoy seguro te pasa lo mismo a ti

C
Porque somos un par de enamorados
G
Que vivimos nuestro amor
Dm F
Que la vida nos ha cambiado
G
Le damos gracias a dios

C
Porque en otra vida ya nos amamos
G
Tanto como el día de hoy
Dm F
Y aunque quieran separarnos
G C
Continuemos la pasión de ser dos enamorados


C Em Dm F G Am Em F G C

C Em
Eres lo mejor que ha pasado en mi vida
Am Em
Fue muy fácil haberme enamorado de ti
F C
Eres el ángel que vino a componer mi vida
Dm F G
Estoy seguro te pasa lo mismo a ti

C
Porque somos un par de enamorados
G
Que vivimos nuestro amor
Dm F
Que la vida nos ha cambiado
G
Le damos gracias a dios

C
Porque en otra vida ya nos amamos
G
Tanto como el día de hoy
Dm F
Y aunque quieran separarnos
G C
Continuemos la pasión de ser dos enamorados

C B A# A

D
Porque somos un par de enamorados
A
Que vivimos nuestro amor
Em G
Que la vida nos ha cambiado
A
Le damos gracias a dios

D
Porque en otra vida ya nos amamos
A
Tanto como el día de hoy
Em G
Y aunque quieran separarnos
A D
Continuemos la pasión de ser dos enamorados

cualquier duda o aclaracion escriban a:
israel_lz_021@hotmail.com