Corran La Voz

Un Segundo Es Demasiado

Genero:

Tablatura

F#m            D                   A
Corran la voz que se acortó la ventaja
E
metió un giro la balanza.
F#m D A
Quiero entender porque te piden ceder
E D
la tribu de oradores que acotan sin razones.

F#m D A
Corran la voz que podría ser mañana,
E
siento que alguien nos dispara.
F#m D A
Puedo ser yo el que no tenga esta vez
E D
la astilla de la torta que a vos siempre te toca.

A D
Y quiero saber ¿Quién sos?
E
¿Por qué mirás tan mal?
D
Yo soy, lo que te pasa.

E A
Ay ay ay va a ser de igual a igual.
E D A
Justo que me estaba acostumbrando.
B
Siempre sacudiendo el árbol desde abajo
D A D B
para ver si cae algo mejor, o peor.

Esto en realidad lo hace el viento pero si lo quieren hacer con la guitarra...

e|------------------------------------------------
B|------------------------------------------------
G|------------------------------------------------
D|------------------------------------------------
A|---------5-4-2-4-2---------------5-5/7-5-7-7/9--
E|-2-2-5-2-----------5-2---2-2-5-2----------------

e|-----------------------------------
B|-----------------------------------
G|-----------------------------------
D|-----------------------------------
A|--------5-4-2-4-2----------------5-
E|-2-2-5-2-----------5-2---2-2-5-2---

F#m D
No me importa tu condición,
A E
tanta seda te cagó el corazón.
F#m D
Esquivando la vereda del perro que más muerda,
A E D
cada paso que das pensás que no te alcanza.

E A
Ay ay ay va a ser de igual a igual.
E D A
Justo que me estaba acostumbrando.
B
Siempre sacudiendo el árbol desde abajo
D
para ver si cae algo mejor.

B
Siempre sacudiendo el árbol desde abajo
D A D B
para ver si cae algo mejor, o peor.

e|------------------------------------------------
B|------------------------------------------------
G|------------------------------------------------
D|------------------------------------------------
A|---------5-4-2-4-2---------------5-5/7-5-7-7/9--
E|-2-2-5-2-----------5-2---2-2-5-2----------------

e|-----------------------------------
B|-----------------------------------
G|-----------------------------------
D|-----------------------------------
A|--------5-4-2-4-2----------------5-
E|-2-2-5-2-----------5-2---2-2-5-2---

E A
Ay ay ay va a ser de igual a igual.
E D A
Justo que me estaba acostumbrando.
B
Siempre sacudiendo el árbol desde abajo
D
para ver si cae algo mejor.

B
Siempre sacudiendo el árbol desde abajo
D A D B F#m
para ver si cae algo mejor, o peor.