Vivos Y Pateandos

Ultimo Asalto

Genero:

Tablatura

INTRO:
RIFF 1
PM……………………………………………………………………………………
E|------------------------------------------------------|
B|------------------------------------------------------|
G|------------------------------------------------------|
D|-----9-10-9-7-9---------------------------------------|
A|--7--------------------10-10-10---10--------9-9-9---9-|
E|-----------------8-8-8----------8-----7-7-7-------7---| X4

RIIF2
PM……………………………………………………………………………………………………
E|----------------------------------------------------------|
B|----------------------------------------------------------|
G|----------------------------------------------------------|
D|----9-10-9-7-9----------12-12-12----12-------11-11-11---11|
A|--7------------10-10-10----------10----9-9-9----------9---|
E|----------------------------------------------------------|


E|-----------------------------------------|
B|-----------------------------------------|
G|-----------------------------------------|
D|-----9-7-9------9-7-9---9-7-9----9-7-9---|
A|--7--------7-7--------7------7-7---------|
E|-----------------------------------------| X2


VERSO:
E6 D5
SOMOS DE UNA GENERACION QUE NO SE PUEDE PARAR
G5 A5 E6
VAMOS A PISAR EL AFALTO DE NUESTRA CIUDAD

UNA FORMA DE VIVIR K NOS LLENA MAS Y MAS

UNA CULTURA NACE-----------LA CLASE OBRERA NO SE PUEDE PARAR

G5 A5 E6 C5 B5 C5

CORO:
G5 A5 E6 C5 B5 C5
SEGUIMOS, SEGUIMOS VIVOS Y PATEANDOS X 4

RIFF 1 X2
RIFF 2

2 VERSO-LOS MISMO ACORDES.

CORO-LOS MISMO ACORDES.

E6 PM UN BUEN RATO

RIFF 1 X 4
RIFF 2

FIN

AKI TERMINA.

PKK_APOSTATA@HOTAMIAL.COM