Un Pie De Guerra

Ultimo Asalto

Genero:

Tablatura

Empieza con un crescendo de batería que rompe con un
SÍ en la 5ª cuerda vibratto.
Arrastra la púa por el mástil hacia la zona donde empieza el riff:
Riff 1º:
E|-----------------------------------|
B|-----------------------------------|
G|-------------------------2---------|
D|----------2---2-0--0-2-3----3-2-0--|
A|-0--0-2-3---3----------------------|
E|-----------------------------------| X 4


VERSO:
A D F
HA PASADO MUCHO TIEMPO, PERO NO HEMOS CAMBIADO
A D C
SIGUES FIEL A LO QUE DICTA, TU MENTE, TU CORAZON
A D F
ESAS IDEAS ANTI-FASCISMO, QUE APRENDIMOS HACE AÑOS
A D C
PERO HAY GENTE QUE FALTA, QUE PRETENDEN CUESTIONARNOS.

ESTRIBILLO:
C D E D
EN PIE DE GUERRA ESTAMOS HOOOOOOO
C D E D
NO NOS PODRAN PARAR HOOOOOO
C D E D
EN PIE DE GUERRA ESTAMOS HOOOOO
C D A
LEVANTA Y LUCHA YAAAAAA.

Riff 1º X2

VERSO:
A D C
ESAS IDEAS YA TAN CLARAS, QUE NO QUIEREN ENTENDER,
A D C
SU POLÍTICA CORRUPTA, NO NOS VA A CONVENCER
A D C
INCULTOS E IGNORATES, QUE NO PARAN DE ATACAR
A D C
INTENTANDO DARNOS CLASE, DE NUESTRA FORMA DE ACTUAR.

ESTRIBILLO:
C D E D
EN PIE DE GUERRA ESTAMOS HOOOOOOO
C D E D
NO NOS PODRAN PARAR HOOOOOO
C D E D
EN PIE DE GUERRA ESTAMOS HOOOOO
C D A
LEVANTA Y LUCHA YAAAAAA.
SOLO:
e|------------------------------------|
B|------------------------------------|
G|-----------------------0------------|
D|---2--0-2-3-2--2-0-2-3---3-2-3-2----|
A|-0----------------------------------|
E|------------------------------------|

E|------------------------------------|
B|------------------------------------|
G|-----------------0-2-4-5-7-542-542--|
D|---2--0-2-3-2--2--------------------|
A|-0----------------------------------|
E|------------------------------------|


E|-----------------------------------|
B|-----------------------------------|
G|-------------------------2---------|
D|----------2---2-0--0-2-3----3-2-0--|
A|-0--0-2-3---3----------------------|
E|-----------------------------------|
VERSO:
A D C
ES EL CAPITALISMO, QUE CRECE DISFRAZADO
A D C
QUE DEFIENDEN A ASESINOS, QUE A MILLONES HAN MATADO,
A D C
NO TENEIS RAZONAMIENTO, SOLAMENTE OBEDECEIS,
A D C
APLICANDO UNAS CONSIGNAS, QUE NI SI QUIERA ENTENDEIS.


ESTRIBILLO:
C D E D
EN PIE DE GUERRA ESTAMOS HOOOOOOO
C D E D
NO NOS PODRAN PARAR HOOOOOO
C D E D
EN PIE DE GUERRA ESTAMOS HOOOOO
C D A
LEVANTA Y LUCHA YAAAAAA.