El Oi! Es Violencia

Ultimo Asalto

Genero:

Tablatura

F   C#  G#  A#

---------------------------------------
---------------------------------------
------5-3-1-----5-3-1---------------
-3-----------3----------3------------- varias veces
---------------------------------------
---------------------------------------


--------------------------------
--------------------------------
----5-3-1--3------------------
-3------------------------------
--------------------------------
--------------------------------


F C# G# A#
Hay una cultura en nuestra ciudad impactante violenta decidida a machacar

F C# G# A#
A toda esa gente que piensa que el Oi! sólo es una tontería y a la

violencia gritan no

F C# G# A#
Con esa basura hay que acabar levantar nuestra cultura para así

poder gritar.

F G G# C# A#
Oi! Oi! Oi! El Oi! Es violencia

F G G# C# A#
Oi! Oi! Oi! Es más que un movimiento

F G G# C# A#
Oi! Oi! Oi! El Oi! Es violencia

F G G# C# A#
Oi! Oi! Oi! Y están de más los que lo niegan