Y Vos Te Reías

Ultima Estacion

Genero:

Tablatura

Este punteo de introducción y la parte del interludio suena
bien y casi original con distorsión, lo demás puede ser a
guitarra común.

Intro:
G Am C Dsus4 D
e|---------------------------------3-3-3-3-2----------------
B|------3-3---------5-3--3-3-3-3---3-3-3-3-3----------------
G|---0--5-4---------7-5--5-5-5-5---2-2-2-2-2----------------
D|--0---5-5-5-5-7-7-7-5--5-5-5-5----------------------------
A|----------------------------------------------------------
E|----------------------------------------------------------

G Am C Dsus4 D Dsus4 D
e|---------------------------------3-3-3-3-2-----3-3-3-3-2--
B|------3-3---------5-3--3-3-3-3---3-3-3-3-3-----3-3-3-3-3--
G|------5-4---------7-5--5-5-5-5---2-2-2-2-2-----2-2-2-2-2--
D|--5-5-5-5-5-5-7-7-7-5--5-5-5-5----------------------------
A|----------------------------------------------------------
E|----------------------------------------------------------

G Am
Óyeme, un sueño he tenido
C D Dsus4 D
Pero no quería contarte.
G Am
Jesucristo había venido
C D D9 D
Pero tú, tú te quedaste
G Am
Cuantas penas, angustia y dolor
C D Dsus4 D
Puede ver en tu mirada
G Am
Sin consuelo pedías perdón
C Dsus4 D Dsus4 D
Pero ya nadie escuchaba.

Coro
G
Siempre te avisé que pasaría
Am
Y vos en mi cara te reías
D G D
Qué pasó con grandeza y tu soberbia.
G
Te hable del Salvador lo despreciaste
Am
Y pudiste ser feliz mas te condenaste
D C G
Hay de ti que nunca mas se oirá tu voz.



G Am C Dsus4 D
e|---------------------------------3-3-3-3-2----------------
B|------3-3---------5-3--3-3-3-3---3-3-3-3-3----------------
G|---0--5-4---------7-5--5-5-5-5---2-2-2-2-2----------------
D|--0---5-5-5-5-7-7-7-5--5-5-5-5----------------------------
A|----------------------------------------------------------
E|----------------------------------------------------------

G Am C Dsus4 D Dsus4 D
e|---------------------------------3-3-3-3-2-----3-3-3-3-2--
B|------3-3---------5-3--3-3-3-3---3-3-3-3-3-----3-3-3-3-3--
G|------5-4---------7-5--5-5-5-5---2-2-2-2-2-----2-2-2-2-2--
D|--5-5-5-5-5-5-7-7-7-5--5-5-5-5----------------------------
A|----------------------------------------------------------
E|----------------------------------------------------------


G Am
Óyeme te ví en el sueño
C D Dsus4 D
Padecer por tu destino
G Am
En una llama que atormentaba
C D D9 D
Aquellas almas junto al camino
G Am
Quité mi vista de donde estaba
C D Dsus4 D
Toda esa gente desesperada
G Am
Oí sus gritos sus mil lamentos
C Dsus4 D Dsus4 D
Mientras el fin allí llegaba.


SE REPITE 3 VECES MAS EL CORO.


Cualquier arreglo o sugerencia me avisan ok!!.
Saludos a la juventud y hnos de la M.I.S de
Villa la Angostura, nqn. Jaime
jimmy_kpox100pre@hotmail.com / jaimevla@yahoo.com.ar