Una Historia De Amor

Ultima Estacion

Genero:

Tablatura

Esta linda canción se hace de a dos Guitarras clasicas
para que suene parecido al tema original. Es una de las
que mas me gusta de este gran grupo. Ahí les va…!!!



Intro:

Em D C Bm
e|-------------------------------------------------
B|-------8---8-7--7---7-5--------------------------
G|----9--9-9-9-7--7-7-7-5--7-7-7-------------------
D|---9-----9--------7------9-9-9-------------------
A|--7----------------------------------------------
E|-------------------------------------------------

Em D C Bm
e|-------------------------------------------------
B|-------8---8-7--7---7-5--------------------------
G|----9--9-9-9-7--7-7-7-5--7-7-7-------------------
D|---9-----9--------7------9-9-9-------------------
A|--7----------------------------------------------
E|-------------------------------------------------

Em C9 D9 G Riff 1
Ha llegado el momento, que tanto tiempo esperé,
Em C9 D G Riff 2
Pues la noche ha pasado, tu eres el amanecer,
C9 D Riff 3 C9 D Riff 4
A Dios le agradezco que hoy, nos ha regalado.

E Am
Una historia de amor,
D G
Historia que es mas dulce que la miel,
Am7 F
Historia que vive en tu corazón,
D G E
Historia que siembra y sega de a dos, de a dos.

E Am
Una historia de amor,
D G
Historia que existe y existirá,
Am7 F
Historia que siempre a tu lado va,
D G
Historia que Dios nos regala hoy.




F G F G
e|--3-1-0-----------------------3-1-0-----------------------------
B|--------3-1-1/3-1-0-1-3-0-----------3-1--3-1-0-------0-1-3-0----
G|-----------------------------------------------2-0--2-----------
D|----------------------------------------------------------------
A|----------------------------------------------------------------
E|----------------------------------------------------------------

F G F G Em
e|--3-1-0-----------------------3-1-0-----------------------------
B|--------3-1-3-1-0-0-1-1/3-0-----------3-1--3-1-0-------0-1-3-0--
G|-----------------2-------------------------------2-0--2---------
D|----------------------------------------------------------------
A|----------------------------------------------------------------
E|----------------------------------------------------------------

D9 C D E
e|--0-2-0-2--3-2-0--0---0---0--2-0-2-3-2-0-4----------------------
B|--3-3-3-3--3-3-3--1-3-1-3-1--3-3-3-3-3-3-5----------------------
G|--------------------4---4---------------------------------------
D|----------------------------------------------------------------
A|----------------------------------------------------------------
E|----------------------------------------------------------------

F#m D9 E A Riff 5
Hoy Dios nos ha unido, con nosotros él estará,
F#m D9 E A
Y aunque vengan muchas aguas, nuestro amor permanecerá.
D E Riff 6 D E Riff 7
A Dios le agradezco que hoy, nos ha regalado.

F#7 Bm
Una historia de amor,
E A
Historia que es mas dulce que la miel,
Bm7 G
Historia que vive en tu corazón,
E A F#
Historia que siembra y sega de a dos, de a dos.

F#7 Bm
Una historia de amor,
E A
Historia que existe y existirá,
Bm7 G
Historia que siempre a tu lado va,
E A
Historia que Dios nos regala hoy.


Riff 1
e|--------------------
B|-----3---5---7---8--
G|--------------------
D|--------------------
A|---2----------------
E|--3----5---7---8----

Riff 2
e|--3-2-2/3-0---------
B|--------------------
G|--------------------
D|--------------------
A|--------------------
E|--------------------

Riff 3
e|--3-2-0-2-2/3-0-----
B|--------------------
G|--------------------
D|--------------------
A|--------------------
E|--------------------




Riff 4
e|--2-3-3/5-3-2-------
B|--------------------
G|--------------------
D|--------------------
A|--------------------
E|--------------------

Riff 5
e|--------------------
B|-----5---7---9---10-
G|--------------------
D|--------------------
A|---4----------------
E|--5----7--9---10----


Riff 6
e|--------------------
B|--3-2-0-2-3-0-------
G|--2-2-2-2-2-0-------
D|--------------------
A|--------------------
E|--------------------

Riff 7
e|--7-5-4-------------
B|--------7-5---------
G|--------------------
D|--------------------
A|--------------------
E|--------------------


Bueno es pero que les aya gustado ya que es mi primera trascripción
y un poco viejo el tema pero no deja de ser bueno y aún lo escucho y
ya no me hace falta dedicarla.
Un saludo a los jóvenes de la Iglesia Misión Iglesia del Señor
de Villa La Angostura,Neuquén. Arg. Bendiciones
Cualquier duda o arreglo Escríbanme o agréguenme .
Chau asta la próxima: Jimmy_kpox100pre@hotmail.com - jaimevla@yahoo.com.ar

Jaime. A. Soto