Gabriela

Ulises Bueno

Genero: Pop

Tablatura

Intro: (D, A, Bm, G) x2 A, D

1ra Guitarra
e|--------------------------------------------|
B|--------------------------------------------|
G|--------------------------------------------|
D|----------------------7------9------7-6-4-1-|
A|-7-7-7--6-6-6--4-4-4----7-4----9-6----------|
E|--------------------------------------------|

2da Guitarra
e|--------------------------------------------------|
B|----------------------10-------12--------10-9-7-5-|
G|-9-9-9--8-8-8--6-6-6-----9--------11--------------|
D|---------------------------11--------13-----------|
A|--------------------------------------------------|
E|--------------------------------------------------|

D
Gabriela tiene la mirada, de los que aman
A
Solo las cosas simples de la vida,
Bm
A ella le gusta teñirse de lluvia,
F#
Cuando la lluvia la salpica en la galería.
G
El trabaja todas las horas de los días,
D
Para ganar lo que no va a gastarse en 7 vidas,
G F#
Y ella sueña con sus besos y el.. solo cuenta moneditas.

D
Gabriela puede viajar al lugar que quiera,
A
El presupuesto seguro le alcanzaría,
Bm
Pero ha elegido la ventana de su living
F#
Para mirar como se le pasa lenta la vida.
G
A ella le gustan los amaneceres,
D
Pero mucho más le gustaban en su compañía,
G
Cuando él no era tan rico
F#
Muchas veces los veían.


G
A ella le pican los brazos
D
Cuando tanta soledad le brota,
G
Ella le dice llorando,
F#
Mientras el la mira como idiota..


D
No me sueltes porque vuelo..
A Bm
No me quieras, porque quiero dame!
G A
Un día a medias si es contigo y eso a mí ya ha de bastarme..

D
No me sueltes porque vuelo..
A Bm
No me quieras, porque quiero dame!
G Em
Que la vida es donde sea si es contigo y no
A F# Bm G
En un palacio frío, donde solo he de extrañarte.
F#
No puedes comprar el tiempo, cuando es tarde..

(Bm, G) x4 D, F#

e|------------------------| |-------| |----------------------------|
B|--------------------7-9-| |---7-9-| |---7p9h7----------------7-9-|
G|---8-9-8-6------8-9-----|x2|-9-----|x3|-9-------9-8-6--------------|
D|-6---------9--6---------| |-------| |---------------9-7-6-6------|
A|------------------------| |-------| |----------------------------|
E|------------------------| |-------| |----------------------------|


D
Así empezaron a pasar los años,
A
Llenos de soledad y monotonía.
Bm
Mientras el se tomaba un vuelo a Londres,
F#
Ella empezó a tomar alcohol con algunas pastillas,
G
A navegar por los eternos mares
D
De una cama sin otro que le brinde compañía,
G
A resignarse a los amaneceres
F#
A no teñirse más de lluvia en la galería.

D
El la encontró en una tarde de regreso,
A
Estaba fría como el mármol de la escalera,
Bm
No alcanza el omnisciente de este narrador
F#
Para decir ¡De qué carajo se murió Gabriela!.
G
Pero murió y el se volvió tan loco,
D
Que nunca más quiso salir a fuera,
G
Se condenó tan solo en el encierro,
F#
Donde vivió tan infeliz Gabriela..

G
Ahora repite cual loco! lo que le decía Gabriela..
D
Mientras quema con desprecio,
F#
Sus billetes en la hoguera!!

D
No me sueltes porque vuelo..
A Bm
No me quieras, porque quiero dame!
G A
Un día a medias si es contigo y eso a mí ya ha de bastarme..

D
No me sueltes porque vuelo..
A Bm
No me quieras, porque quiero dame!
G A
Un día a medias si es contigo y eso a mí ya ha de bastarme..

D
No me sueltes porque vuelo..
A Bm
No me quieras, porque quiero dame!
G Em
Que la vida es donde sea si es contigo y no
A F# Bm G
En un palacio frío, donde solo he de extrañarte.
F# Bm
No puedes comprar el tiempo, cuando es tarde..