Burbujita

U.f.o

Genero:

Tablatura

D5 - A5 (X17)

A - C#m - F# - D (X2)

D - D


FUI LASTIMADO COMO SI HUBIERA
SIDO YO EL KE TE FALLE
HUMILLADO POR UNA PERRA
KE NO SUPO SEBER KIEN SOY

ERA SERPIENTE TODO SU CUERPO
Y SU CARA DE MUJER
ME MORDIO Y CON SU VENENO
TODO ME TRANSTORNO

D5 HEY - D5


D#5 - B5
ARRASTRADO...
C#5 C#5-D5
POR TODA LA CIUDAD...
D#5 - B5
ESTADO DE EBRIEDAD...
C#5 C#5-D5
NADIE ME LO PUEDE KITAR..(X2)

D HEY - D HEYYY...

A - C#m - F# - D

LA PRESENTE CON MIS AMIGOS
DEL BARRIO
ERA RAMERA CON TODOS ELLOS
SE LOGRO METER

LA BURBUJITA AHORA ES EL AMOR
DE PEDRO, FAUSTO Y GEOVA TAMBIEN
Y AHORA SOMOS ¡UNOS BORRACHOS!
NADIE NOS LO PUEDE KITAR


D5 HEY - D5


D#5 - B5
ARRASTRADO...
C#5 C#5-D5
POR TODA LA CIUDAD...
C#5 - B5
ESTADO DE EBRIEDAD...
C#5 C#5-D5
NADIE ME LO PUEDE KITAR..(X2)


D5 HEY - D5 HEYYY...(X2)

SOLO

E||--12----10----9----10------9----9h--10p--9----7----5----12----|
B||--------------------------------------------------------------|
G||--------------------------------------------------------------|
D||--------------------------------------------------------------|
A||--------------------------------------------------------------|
E||--------------------------------------------------------------|


--10----9----10----9------10----12-
-----------------------------------
-----------------------------------
-----------------------------------
-----------------------------------
-----------------------------------

|---14----14------12----10----12----12----|
|-----------------------------------------|
|-----------------------------------------|
|-----------------------------------------|
|-----------------------------------------|
|-----------------------------------------|



--10----9------------------------9-
-------------12----10------12------
-----------------------------------
-----------------------------------
-----------------------------------
-----------------------------------

|---------9------10----9----10----12----|
|---12----------------------------------|
|---------------------------------------|
|---------------------------------------|
|---------------------------------------|
|---------------------------------------|


--12----10----9----10------10----9--
------------------------------------
------------------------------------
------------------------------------
------------------------------------
------------------------------------


|----------------12----10----9----10----|
|--12----10-----------------------------|
|---------------------------------------|
|---------------------------------------|
|---------------------------------------|
|---------------------------------------|






--9----9h--10p--9--7----5----||
-----------------------------||
-----------------------------||
-----------------------------||
-----------------------------||
-----------------------------|| A - C#m - F# - D


ESTADO DE EBRIEDAAAAAAAAAAAAD... (X4 SOLO BAJO Y BATERIA)


ESTADO DE EBRIEDAAAAAAAAAAAAD... (X5 A-C#m-F#-D)

A5
ESTADO DE EBRIEDAAAAAAAAAAAAD...

E correo:
gbh_elmaspro.v.g@hotmail.com