Sapay Kani

Uchpa

Genero:

Tablatura

Es una buena cancion de este gran grupo... disfrutenla!!!
ya encontré la letra XD jojojo hasta con traducción.
Se recomienda tocar el Am con puente en el 5ª traste,
G con puente en el 3º traste, esta igualita asi q sakenme
esos puntos negativos !!!

INTRO:

Am - G - F - E (E7)

VERSO:

Am G
Chiri chisi ñuqawan iskaymy kaniku
F E(E7)
munaycuripuita sapallaypi
Am G
quk warmynripucuq ñuqapi yuyastin,
F E(E7) Am...
manan manan tarynqachu ñuqaqina

CORO:
F C G
Sapay kani, kaypim kani tutapi,
Am
chirillaña...
F C G
Sapay kani, kaypim kani guitarraywan
Am
llakimustin...


SOLO:

e|----------------------------------------------------
b|----------------------------------------------------
g|----------------------------------------------------
d|-------10-12^-12^-12^-12^..-----10-12^-12^-12^-12^..
a|-10/12-----------------------12---------------------
E|----------------------------------------------------


e|----------------------------------------------------
b|-----15-15-----15-15--------------------------------
g|-14^-------14^--------14^-14-12-14-12--12----------
d|-------------------------------------14------------
a|---------------------------------------------------
E|---------------------------------------------------


e|----15---------------------------------------------
b|-15^--15^--15^15-13----13^----15^15-13----13^------
g|--------------------14-----------------14----------
d|---------------------------------------------------
a|---------------------------------------------------
E|---------------------------------------------------


e|------17-----17------------17-------20^20^-20^-17..
b|-15^^----20^----20^-17-20^----20-17----------------
g|---------------------------------------------------
d|---------------------------------------------------
a|---------------------------------------------------
E|---------------------------------------------------



e|-----20^-17-20^-17----------20^----20^----20^----20^-
b|--17---------------20^..--17-----17-----17-----17-----
g|----------------------------------------------------
d|----------------------------------------------------
a|----------------------------------------------------
E|----------------------------------------------------


e|-17-15/17-17-15-12------------------12-------------
b|--------------------15-13-----13-15----15-13-------
g|--------------------------14-----------------14----
d|---------------------------------------------------
a|---------------------------------------------------
E|---------------------------------------------------


e|------------15--------------------------------------
b|--13-15-15^----15^ 13...--13------------------------
g|--------------------------14-----------------------
d|---------------------------------------------------
a|---------------------------------------------------
E|---------------------------------------------------


VERSO: (REPITE)


FINAL:

E|---------------------------------------------------
b|--------------------------------10-8---------------
g|-------------------------------------9-7^-5---5/7-5
d|-------10-12^-12^-12^-12^...----------------7------
a|-10/12---------------------------------------------
E|---------------------------------------------------


E|--------------------5--------------
b|--------------------5--------------
g|---5----------------5--------------
d|-7---7-5------------8--------------
a|---------7-5--------8--------------
E|-------------8-5...-5--------------


TRADUCCIóN:

La noche fría y yo somos dos
queremos irnos
cuando una mujer se va, pensando en mi
no va a encontrar igual que yo

Soy solo, y estoy aquí en la noche
fría...
Soy solo, con mi guitarra
muy...