Pitaqmi Kanki ?

Uchpa

Genero:

Tablatura

preferentemente :
Am C G
e|---5---|---8----|---10---|
b|---5---|---8----|---12---|
g|---5---|---9----|---12---|
d|---7---|---10---|---12---|
a|---7---|---10---|---10---|
E|---5---|---8----|---10---|

les dejo los acordes, pero al momento de tocar se hacen unos
arreglitos... creo q màs depende de su gusto y estilo...


intro: Am Am C G Dm X2


Am C
pitaqmi kanki
G
pim kanki
Dm
yachankichu
Am
man\' yachankichu
C
pitaqmi kani
G
pim kani
Dm
yachawaqcha?

utaq mana?
Am
man\' yachankichu

CORO:
C
wakcha warma
G
ama yachaychu
Dm
wiñaptikin
Am
yachawaqcha
C


wakcha warma
G
icha yachawaq
Dm
uyaptikin
Am
pantamunki

solo:

e|--------------------------------------------------
b|--------------------------------------------------
g|-------5--------12^..---12^--12^..----12^---------
d|---5-7---7-5---------------14------------14-15^---
a|-7-----------7------------------------------------
E|--------------------------------------------------



e|---------------------------------------------------
b|---------------------------------------------------
g|---------------------------------------------------
d|--12-10---------------------10----10---------------
a|--------12-10------------------12----12-10-12------
E|--------------12-10-8-10-12------------------------



e|----------------------------------------------------
b|----------------------------------------------------
g|----------------------------------------------------
d|------12^-10-12^-10-12^-10-12^-10--12-10------------
a|-----------------------------------------12-10-12---
E|----------------------------------------------------



e|---------------------------------------------------
b|--15/17-20^20-17-20^...--20^20-17-20^...-20^20-17--
g|---------------------------------------------------
d|---------------------------------------------------
a|---------------------------------------------------
E|---------------------------------------------------



e|----20--------20--------20---------20--------------
b|-20^--20^--20^--20^--20^--20^---20^--20^-----------
g|---------------------------------------------------
d|---------------------------------------------------
a|---------------------------------------------------
E|---------------------------------------------------



e|-22^20--15-17-15-12-15-12----12--------------------
b|--------------------------15----15-13..------------
g|---------------------------------------------------
d|---------------------------------------------------
a|---------------------------------------------------
E|---------------------------------------------------



e|-----------------15------------------------------------
b|----13----13-15^----15^-13-15-13------------13----13-15^
g|-14----14-------------------------14...--14----14------
d|-------------------------------------------------------
a|-------------------------------------------------------
E|-------------------------------------------------------


C
yachaptikin, qantam niyki papay
G
qichusqanmanta, qatun runakuna
Dm
icha kausaynikim, wauqiy
Am
qukmayarunqa

CORO: x2
C
wakcha warma
G
ama yachaychu
Dm
yachaptikin
Am
waqallanki

Buena letra.. buena música.. sigan difundiendo el kechua !!