Pachamama

Uchpa

Genero:

Tablatura

          PACHAMAMA
G C D A# E CREO K HAY ARPEGIA
NO LA HE ACADO ESA PARTE MUY BIEN
PERO BUENO.
---0--1--2---MI(6)

G5 C5...G5 C5

G5 C5
AMAMMARGUCHICHU PACHAMAM WASKAN CHIUTA

D5 C5 A# C5 G5
KENA KAUS JAY CHU

G5 C5
VICUÑA CHAUPAS ÑAHUAN CHAUPAS VISCACHANTEVA
D5 C5 A# C5 G5
PAI PAI PAI PAI PAZ
G5 C5
CHAOKNIO POJKOCHY SAHNAN PIUTE

D5 C5 A# C5 G5
PAI PAI PAI PAI PAZ
G5 C5 G5
FIGUARGENTE PICHIRUMM CHOUERNIUPAS
C5
CHIO A KOU
D5 C5 A# C5 G5
PAI PAI PAI PAI PAZ
G5 C5
CHEJKO YO PAZ YU TU
D5 C5 A# C5 G5
PAI PAI PAI PAI PAZ

G5 C5
AKARYUPAS LEJK LEJK
G5 C5
PAO PAKAR TU KCUUUUUUU
D5 C5 A# C5 G5
PAI PAI PAI PAI PAZ

SOLO : el solo de esta canciòn es + o - asi .......

---3-5--------------------------------------- -------------------- (6)
-----3-5------------------------------------ --------------------- (5)
--------3-5-----------5-5---------------5--- --------------------- (4)
-----------3-5---7---3----3--------5-3-5--3- --------------------- (3)
---------------3-3-3b-------3-----4--------- -6-8---8-8-6----8-6-- (2)
------------------------------3-3----------- -----6--6----6------- (1) (prima)


---------------------------------------------- ------------------------------------------------------------------
---------------------------------------------- -------------------------------------------------------------------
---------------------------------------------- ------------------------------------------ -- ---------------------
---------------------------------------------- ----------------------16--13-16---16------------------------------
-6-8-----8----------------------------------- --------15--13---15-------------------------------------------------
------6-----6--6-8------6----9-12---9-- --15-13----------------------------------------------------------------



-------------------------------------------------------------------------------------------------------------
-------------------------------------------------------------------------------------------------------------
-------------------------------------------------------------------------------------------------------------
---------------------------------------------------------13--------------------------------------------------
--6--8-------8------6-8--------8-----12--------12---------------------8------6-8--------8--------------------
----------6-----------------6----------------12-----------------------6----6------------6--------6-----------



----------------------------------------------------------
----------------------------------------------------------
----------------------------------------------------------
----------------------------------------------------------
--------------21------------15--13--15--13--15------------
--------------15--15--13----------------------20----------


---0--1--2---MI(6)


G5
YUTISKÝ YOU PAZ
C5
CKAS PICKORU
G5
PAYAM CHAKE
D5 C5 A# C5 G5
PAI PAI PAI PAI PAZ
G5
ORO JOLKLPAS
C5
HATAN TANJAY
G5
AYACH KANJKENUA
D5 C5 A# C5 G5
PAI PAI PAI PAI PAZ
G5 C5
HUAIRON JOTKA SISIRUPAZZZ...

D5 C5 A# C5 G5
PAI PAI PAI PAI PAZ

D5 C5 A# C5 G5
PAI PAI PAI PAI PAZzzzzzzzzzzzzzzz


nota: sorry hice lo mjor k pude kon el quechua …..
ha! y un saludo para la gentita de \'\'\'zarate\'\'\'\'
y nada apoyen el bluesssssssssssssssssssss!!!!!!!!!!!!!!