Manankutimusaqchu

Uchpa

Genero:

Tablatura

Intro: D9 - D - D-D13 - D - D5 - D5 - D5 - D5 - D5 - D5.

--/------/--------------------/------/---------------------
--/------/--------------------/------/---------------------
--/------/-----------------7--/------/-----------------7---
-7/-7-9-7/ 7-9-7 5-5---------7/-7-9-7/-7-9-7-5-5-----------
--/------/-------------5-9----/------/-------------7-9---9-
--/------/-----------3--------/------/-----------3---------

Sumaqmi karqa qepa punchau munayman
D5 Em7
kutimuyta muskinmi qukman yuyankiman
D5 D5
chaynatan muskimunman
Em7 D5

Kunanqa man\'kutimusaqchu kunanqa man\'kutimusaqchu
D5 C5 G5 D5 D5 C5 G5 D5

--/------/--------------------/------/---------------------
--/------/--------------------/------/---------------------
--/------/-----------------7--/------/-----------------7---
-7/-7-9-7/ 7-9-7 5-5---------7/-7-9-7/-7-9-7-5-5-----------
--/------/-------------5-9----/------/-------------7-9---9-
--/------/-----------3--------/------/-----------3---------

Urpitu qina pawarqani kunanqa
D5 Em7
Atikunchu miskillan karqa
D5
Yuyankiman munayman kutimuyta
Em7 D5

Kunanqa man\'kutimusaqchu kunanqa man\'kutimusaqchu
D5 C5 G5 D5 D5 C5 G5 D5

Punteo:

------/-------10------------------------------------------------------------
------/-----6----10----10---------------10----------------------------------
-2+4-7/-4-7---------10----10-9-7---7-10----10-9-7---7----------------------7
------/--------------------------9----------------9---9-7--------------7-9--
------/---------------------------------------------------9----7-7-9-9------
------/-----------------------------------------------------10--------------

-------10---------------------/--------/-------
-----7----10-------------7---7/--------/-------
---7---------9-7-9-7---7---7--/-9-7-9-7/-11-11-
-9-------------------9--------/--------/-------
------------------------------/--------/-------
------------------------------/--------/-------

-------10----10-------(14)(14)-14-12----------15-14---------------------------------------------------/----------
-10-12----12----12-10----------------15-12----------15-13----15-15-13----13-10------------------------/----------
-------------------------------------------14-------------14----------14-------12-10-12-10----------10/----------
-------------------------------------------------------------------------------------------12-10-12---/-12-10-12-
------------------------------------------------------------------------------------------------------/----------
------------------------------------------------------------------------------------------------------/----------

------/-----------/-------10----10------------------17-17-17-15----
-10-10/-----------/-10-13----13----(10)-------13-15-------------15-
------/-12-10-12-1/---------------------12-14----------------------
------/-----------/------------------------------------------------
------/-----------/------------------------------------------------
------/-----------/------------------------------------------------

------/---------------------------------
------/---------------------------------
-2---2/---2---3---3---3---5---5---5---2-
---0--/-0---0---0---0---0---0---0---0---
------/---------------------------------
------/--------------------------------- (2 veces)

--------------------/-----------
--------------------/-----------
-3-2-2-2-3-2-2-2-3-2/-----------
--------------------/-3-0---(0)-
--------------------/-----3-----
--------------------/----------- (8 veces)

Kunanqa man\'kutimusaqchu kunanqa man\'kutimusaqchu
D5 C5 G5 D5 D5 C5 G5 D5


G5 - F5 - G5 / G5 - F5 - G5 / G5 - F5 - G5
A5# - C5 - D5 - G5..(4 veces)

--/------/--------------------/------/---------------------
--/------/--------------------/------/---------------------
--/------/-----------------7--/------/-----------------7---
-7/-7-9-7/ 7-9-7 5-5---------7/-7-9-7/-7-9-7-5-5-----------
--/------/-------------5-9----/------/-------------7-9---9-
--/------/-----------3--------/------/-----------3---------

Sumaqmi karqa qepa punchau munayman
D5 Em7
kutimuyta muskinmi qukman yuyankiman
D5 D5
chaynatan muskimunman
Em7 D5

Kunanqa man\'kutimusaqchu kunanqa man\'kutimusaqchu......uchpa...:P
D5 C5 G5 D5 D5 C5 G5 D5


Acordes:

D9= (0) D13= (3) D5= (x) Em7= (0) C5= (x) G5= (x) F5= (x) A5#= (x)
(3) (3) (x) (0) (x) (x) (x) (x)
(2) (2) (7) (4) (5) (x) (x) (3)
(0) (0) (7) (5) (5) (5) (3) (3)
(0) (0) (5) (5) (3) (5) (3) (1)
(0) (x) (x) (3) (x) (3) (1) (x)

No digan que esta rola esta mal..porq me he tardado un huevo en terminar.chaus;P