Mana¤aqchiki Qawasqayki

Uchpa

Genero:

Tablatura

     G
e|---3---|-------------------------
b|---3---|-------------------------
g|---0---|-0h2-0-----0-2-4---------
d|---0---|------0---------------0--
a|---2---|-------0------------2----
E|---3---|--------3---------3------

7h8-7-5-5h7-5-3-1-1h3-1-------------------------|
------------------------3-----------------------|
----------------------------0h2-----0-2-4-------|
--------------------------------0------------0--|
---------------------------------0----------2---|
----------------------------------3--------3----|

G Em
Manañaqchiki Qawasqayki
C D Dsus
ripuskaykita qauani
G Em
miski karqanki yuyamuyki
C D Dsus
asikuykita umaypi
C G D
tupananchikama kanqanpunchau-
C G C D
qawarkusunchic
C G D
ñuqamantapas pipas waqanqa
C G D G
saqisayki.

G
e|------------------------|-3---|
b|--------3h5--5p3--------|-3---|
g|--------2h4--4p2--------|-0---|
d|------------------------|-0---|
a|------------------------|-2---|
E|--3-2-0-----------0-2---|-3---|