Corazón Contento

Uchpa

Genero:

Tablatura

Intro:P

Nota: ==> E5/8, significa q se debe de tocar ese acorde en ese # de traste;P

G5, C5 - A5#

-------------------/---------
-----1-1-3-1---1---/---------
-0-3---------3---3-/-0-3-3-0-
-------------------/---------
-------------------/---------
-------------------/---------

A5#, A5# - G5, G5 - D5#, D5# - E5/8

------------------------------8-6------------------------------------------------------------------------
----------6-8-8-6-8---6-8-8-6-----8-6-8-6---6-8----------------------------------------------------------
-(7)(7)-7-----------7---------------------7-----(7)-5---5-------------------------5-7-5------------------
------------------------------------------------------8---8-5---5-5-8-8-5-8-8-5-8-------8-5-8------5-8---
--------------------------------------------------------------8-------------------------------8-5-8------
---------------------------------------------------------------------------------------------------------

Pawarqamuy lluksirqamuy corazón contento
G5 A5# C5 A5# G5
Pawarqamuy lluksirqamuy corazón contento
G5 A5# C5 A5# G5
Killa qawariq tumpachalla corazón contento
G5 A5# C5 A5# G5
Inti qawariq tumpachala corazón contento
G5 A5# C5 A5# G5

Kuyaqchallaykim suyachkaikin Corazón contento
A5# C5 A5# G5
Waylluqchalla ikym suyawankichu suyachkaykym corazón contento
A5# C5 A5# G5
Kuyawankichu icha manachu corazón contento
G5 A5# C5 A5# G5
Waylluwankichu icha manachu corazón contento.
G5 A5# C5 A5# G5

Hayy rusaschay rusaschay mayu patapi rusaschay
G5 G5
Qampa kausa ynikipi yaqalla lluchkaykamuni
G5 G5
yaqalla urmaykamuni.

Acordes;)

G5= (x) C5= (x) A5#= (x) D5#= (x) E5= (x)
(x) (x) (x) (x) (x)
(x) (5) (3) (8) (3)
(5) (5) (3) (8) (3)
(5) (3) (1) (6) (1)
(3) (x) (x) (x) (x)

Chaufas;P