Chachaschay

Uchpa

Genero:

Tablatura

Intro:

Nota: /8 - /6 Significa q se debe de tocar esa nota en ese numero de traste:P

D5 - E5/8 - A5/6

---------------------------
----------------------10---
-------------------10------
-------2-3-0-12-12---------
---0-3---------------------
-6-------------------------

D5 - E5/8 - A5/6

-------------------------10-13-10-------------
----------------------------------13-10-13-10-
-------------------10-10----------------------
-------4-3-0-12-12----------------------------
---0-3----------------------------------------
-1--------------------------------------------

-3-----3-5-3-----------------------------------------------8-10----8-10-10-8----15-13------------------------------------------------
---5-6-------6-5-6-3---3---------------------------3-6-3-10-----10-----------10-------15-15-13----13-15-13-10-------13-10------------
---------------------5-------------------------2-5---------------------------------------------14-------------12-10-------12-10-(10)-
-------------------------5-3-5-3-5-3-------3-5---------------------------------------------------------------------------------------
-------------------------------------5-3-5-------------------------------------------------------------------------------------------
-------------------------------------------------------------------------------------------------------------------------------------

Ñachu Mamayki yachanña Chachaschay
D5 F5
Quri anillu Qusqayta Chachaschay
D5
ñachu mamayki yachanña chachaschay
D5 F5
Quri anillu Qusqayta chachaschay
D5

Yachachun yachachun chachaschay
D5 F5
quri anillu qusqayta chachaschay
D5
Yachachun yachachun chachaschay
D5 F5
quri anillu qusqayta chachaschay
D5

--------------------------------------
--------------------------------------
--------------------------------------
-------0-3-3-3---3-------0-3-3-3------
---0-3---------5-----0-3---------3-5--
-1-----------------1------------------

Cielupi lucero kachkanchu chachaschay
D5 F5
Ñuqapi sunquyki kachkanchu chachaschay
D5
Cielupi lucero kachkanchu chachaschay
D5 F5
Ñuqapi sunquyki kachkanchu chachaschay
D5

Kachumpas amapas chachaschay
D5 F5
Ñuqa munaptiy atinin chachaschay
D5
Kachumpas amapas chachaschay
D5 F5
Ñuqa munaptiy atinin chachaschay (repit the intro) :P
D5

Ñachu Mamayki Yachanña trebolchay
D5 F5
Quri anillu qusqayta trebolchay
D5
Ñachu Mamayki Yachanña trebolchay
D5 F5
Quri anillu qusqayta trebolchay
D5

Yachachun Yachachun Trebolchay
D5 F5
Quri anillu qusqayta trebolchay
D5
Yachachun Yachachun Trebolchay
D5 F5
Quri anillu qusqayta trebolchay
D5


A5 - A5 - A5 - A5 - A5 - A5 - A5 - A5 - A5 - A5 - A5 - A5

-----------------5-----------------
-5-5-5---------8---5-5-5-----------
-------8-8-8-5-----------8-8-8-7-5-

-----------------5-----------------
-5-5-5---------8---5-5-5-----------
-------8-8-8-5-----------8-8-8-7-5-

-----------------5-----------------
-5-5-5---------8---5-5-5-----------
-------8-8-8-5-----------8-8-8-7-5-

(repit the intro) :D


Solo se usan 4 acordes y estos son :

D5= (x) F5= (x) A5= (x) E5= (x)
(x) (x) (x) (x)
(7) (x) (x) (3)
(7) (3) (7) (3)
(5) (3) (7) (1)
(x) (1) (5) (x)