Maldición

Rosalía

Album: EL MAL QUERER
Genero: Pop

Tablatura (Ver letra)

(Con la guitarra afinada medio tono más bajo: Eb-Ab-Db-Gb-Bb-Eb)

e|-------------------------------------------
B|-------------------------------------------
G|-------------------------------------------
D|---------------9--11----------------9--11--
A|--------8--11----------------8--11---------
E|-9--10----------------9--10----------------

--------------------------------------------|
--------------------------------------------|
--------------------------------------------|
--------------------------------------------|
-9--11--12--14--12--11--9-------------------|
---------------------------12--10--12--9--10|

e|------------------------------------------
B|------------------------------------------
G|------------------------------------------
D|---------------9--11----------------9--11-
A|--------8--11----------------8--11--------
E|-9--10----------------9--10---------------

--------------------------------------------|
--------------------------------------------|
--------------------------------------------|
--------------------------------------------|
-9--11--12--14--12--11--9-------------------|
---------------------------12--10--12--9--10|

e|------------------------------------------
B|------------------------------------------
G|------------------------------------------
D|---------------9--11----------------9--11-
A|--------8--11----------------8--11--------
E|-9--10----------------9--10---------------

--------------------------------------------|
--------------------------------------------|
--------------------------------------------|
----9--11--9--8-----12--11--9--8------------|
-9---------------9----------------10--9-----|
--------------------------------------------|

e|-----------------------------------------
B|-----------------------------------------
G|---------------9--11---------------9--11-
D|--------8--11---------------8--11--------
A|-----9----------------7--9---------------
E|-10--------------------------------------

---------------------------------------------|
---------------------------------------------|
---------------------------------------------|
-----------9--11--9--11--9------9------9-----|
----7--11-------------------11-----11--------|
-9-------------------------------------------|

e|------------------------------------------
B|------------------------------------------
G|------------------------------------------
D|---------------9--11----------------9--11-
A|--------8--11----------------8--11--------
E|-9--10----------------9--10---------------

--------------------------------------------|
--------------------------------------------|
----------------4-----------------6---------|
-------------5--------------4--8------------|
-------2--5-----------1--4------------------|
-0--3--------------2------------------------|

e|-----------------------------------------
B|-----------------------------------------
G|---------------9--11---------------9--11-
D|--------8--11---------------8--11--------
A|-----9----------------7--9---------------
E|-10--------------------------------------

---------------------------------------------|
---------------------------------------------|
---------------------------------------------|
-----------9--11--9--11--9------9------9-----|
----8--11-------------------11-----11--------|
-9-------------------------------------------|

e|------------------------------------------
B|------------------------------------------
G|------------------------------------------
D|---------------9--11----------------9--11-
A|--------8--11----------------8--11--------
E|-9--10----------------9--10---------------

--------------------------------------------|
--------------------------------------------|
----------------4-----------------6---------|
-------------5--------------4--8------------|
-------2--5-----------1--4------------------|
-0--3--------------2------------------------|

e|---------------------------------------
B|---------------------------------------
G|---------------------------------------
D|----7--11--7-----7---------7-----------
A|-9------------9---------9-----9------9-
E|--------------------10-----------10----

-----------------------------------------------|
-----------------------------------------------|
-----------------------------------------------|
----6--9--6------------------------------------|
-7-----------7--5--4---------------------------|
-----------------------------------------------|


A
Ay, el querer
E D
Que en un momento quisiera
D E A
Estar loca y no querer
F#m E
Porque el querer causa pena
E D A
Pena que no tiene fin
D C#
Y el loco vive sin ella


e|------------------------------------------
B|------------------------------------------
G|------------------------------------------
D|---------------9--11----------------9--11-
A|--------8--11----------------8--11--------
E|-9--10----------------9--10---------------

--------------------------------------------|
--------------------------------------------|
--------------------------------------------|
----9--11--9--8-----12--11--9--8------------|
-9---------------9----------------10--9-----|
--------------------------------------------|

e|-----------------------------------------
B|-----------------------------------------
G|---------------9--11---------------9--11-
D|--------8--11---------------8--11--------
A|-----9----------------7--9---------------
E|-10--------------------------------------

---------------------------------------------|
---------------------------------------------|
---------------------------------------------|
-----------9--11--9--11--9------9------9-----|
----8--11-------------------11-----11--------|
-9-------------------------------------------|

e|------------------------------------------
B|------------------------------------------
G|------------------------------------------
D|---------------9--11----------------9--11-
A|--------8--11----------------8--11--------
E|-9--10----------------9--10---------------

--------------------------------------------|
--------------------------------------------|
----------------4-----------------6---------|
-------------5--------------4--8------------|
-------2--5-----------1--4------------------|
-0--3--------------2------------------------|

e|-----------------------------------------
B|-----------------------------------------
G|---------------9--11---------------9--11-
D|--------8--11---------------8--11--------
A|-----9----------------7--9---------------
E|-10--------------------------------------

---------------------------------------------|
---------------------------------------------|
---------------------------------------------|
-----------9--11--9--11--9------9------9-----|
----8--11-------------------11-----11--------|
-9-------------------------------------------|

e|------------------------------------------
B|------------------------------------------
G|------------------------------------------
D|---------------9--11----------------9--11-
A|--------8--11----------------8--11--------
E|-9--10----------------9--10---------------

--------------------------------------------|
--------------------------------------------|
----------------4-----------------6---------|
-------------5--------------4--8------------|
-------2--5-----------1--4------------------|
-0--3--------------2------------------------|

e|---------------------------------------
B|---------------------------------------
G|---------------------------------------
D|----7--11--7-----7---------7-----------
A|-9------------9---------9-----9------9-
E|--------------------10-----------10----

-----------------------------------------------|
-----------------------------------------------|
-----------------------------------------------|
----6--9--6--9--6-----6--9--6------------------|
-7-----------------7-----------7--5--4---------|
-----------------------------------------------|


A
He dejao un reguero
D E
De sangre por el suelo
A
He dejao un reguero
D
Que me lleva al primer día
E A
Que te dije que te quiero
D E D C#
Pa\' saber lo que decía


(A)
Ay, el querer
E D
Que en un momento quisiera
D E A
Estar loca y no querer
F#m E
Porque el querer causa pena
E D A
Pena que no tiene fin
D (C#)
Y el loco vive sin ella