Ausencia

Quique Neira

Genero:

Tablatura

Buena esta es una hermosas cancion ... hay les va...;);)


Tu ausencia tu precencia tienen un efecto sobre mi
E|----0-------------|----0------------|----0------------------0----|
B|---0--------------|---0-------------|---0------------------0-----|
G|--2---------------|--2--------------|--2------------------2------|
D|-2----------------|-4---------------|-5------------------6-------|
A|------------------|-----------------|----------------------------|
E|------------------|-----------------|----------------------------|

(solo 1) Asus2 - Asus2/F# - Asus2/G - Asus2/G#


Asus2 Asus2/F# Asus2/G Asus2/G#
Tu ausencia, sentencia a una vida de soledad
Asus2 Asus2/F# Asus2/G Asus2/G#
tu precencia me eleva junto a ti donde quiero estar
Asus2 Asus2/F# Asus2/G Asus2/G#
Mi vida es intensa siempre que a mi lado estás
Asus2 Asus2/F# Asus2/G Asus2/G#
es inmensa mi carencia cuando despierto y en mi
vida no estás

Asus2 Asus2/F# Asus2/G Asus2/G#
Tu ausencia, sentencia a una vida de soledad
Asus2 Asus2/F# Asus2/G Asus2/G#
tu precencia me eleva junto a ti donde quiero estar


Cuando apareciste, cuando me devolviste entonces comprendí

E|----0-------------|----0---------------|----0--------------|
B|---0--------------|---0----------------|---0---------------|
G|--2---------------|--2-----------------|--2----------------|
D|-2----------------|-4------------------|-5-----------------|
A|------------------|--------------------|-------------------|
E|------------------|--------------------|-------------------|

que yo era solo para ti...

E|--------------0------------|
B|-------------0-------------|
G|------------2--------------|
D|-----------6---------------|
A|---------------------------|
E|---------------------------|




Asus2 Asus2/F# Asus2/G Asus2/G#
Y has llenado ese espacio en mi corazón,
Asus2 Asus2/F# Asus2/G Asus2/G#
solo tu puedes darme esas ganas de vivir y crecer .. siii...
Asus2 Asus2/F# Asus2/G Asus2/G#
Tu ausencia, tu precencia....

Bm C#m F#m
Y es que sin ti la vida me parece muy triste

Bm C#m G
me haces falta cuando no estás, me haces falta como el mismo aire

Asus2 Asus2/F# Asus2/G
Cuando te decidas a pasar conmigo una noche en vela
Asus2/G#
y entregarnos nuestro querer

(solo 2) Asus2-Asus2/F#-Asus2/G-Asus2/G#

¡¡¡ y luego se repite !!!


;);) disfrutenla ;);)

---------------------------------------------------|
|
Asus2 Asus2/F# Asus2/G Asus2/G# |
E|----0----|-----0------|----0-----|----0------| |
B|----0----|-----2------|----0-----|----0------| |
G|----2----|-----2------|----2-----|----2------| |
D|----2----|-----0------|----2-----|----2------| |
A|----0----|-----0------|----0-----|----0------| |
E|----0----|-----2------|----3-----|----4------| |
|
---------------------------------------------------|

Dedicada especialmente a MI BEbé MOnina!! =) =) .. TE AMO MI AMOR
SERA UN AÑO DURO, PERO NADA QUE PUEDA CONTRA NUESTRO AMOR!!

TE AMOoOoOoOoOoOoOoo!!! LO ERES TODOO!! 100.P.J.H.V.

---------->PANXO<----------