Ven

Quinto Sol

Genero:

Tablatura

intro:
e--0/3-5-7-7-5-3-5-3-0--0-5-7-3-5-7--5-7-5-7-5-7-5
es se toca en la ultima cuerda.

rife:
e------------------------
b-0-3-5-7-0-3-5----------
g--------------7---------
d------------------------
a---------------(2h3)(casi inaudible)
E------------------------

solo:
e-12-15-12-15-12-12-14-12--------------------
b------------------------12-7-12-8-----------
g---------------------------------12-15-15-12
d--------------------------------------------
a--------------------------------------------
E--------------------------------------------

final:
e-0-3-5-7--*5-3-7-3-5-7-3-5-7-3---*-------
b-----------------------------------------
g------------------------------8-9-10-----
d------------------------------------12-15
a-----------------------------------------
E-----------------------------------------

verso:
(aqui comienza con el intro)
1
y otra vez
2
camino de noche
3 4 4
acompañado de mi soledad
1 2
mi piel recuerda tu cuerpo
3 4
en cada estrella que veo pasar


coro:(con distorción media)
1 2
ven dame tu mano
3 4
intenta estar conmigo otra vez
1 2
ven dame tu cuerpo
3 4
que quiero estar contigo otra vez


verso:

ya tu recuerdo
inunda mi pecho
y lo desgarra con tu vanidad
tu mirada penetra mi espalda
y mis manos destrozan tu falda
al recordaaaaaaaaaaaaar.....
este verso va con las mismas pisadas que el primero

coro:
ven dame tu mano........

ahi les van las pisadas

e--3---3---3---3---
b--3---3---3---3---
g--0---0---0---0---
d--2---2---0---0---
a--2---3---0---2---
E--0---0---3---0---

nota: esta rola esta muy chida nada mas echenle ganas y ponganle de su cosecha.