Killer Queen

Queen

Album: Sheer Heart Attack
Genero: Rock

Tablatura (Ver letra)

...KILLER QUEEN... by Queen
------------------.........

*from 'Sheer Heart Attack' (1974)*

*CAPO 3rd FRET*

(Original Key: Cm)


[Verse 1]

Am G7/B
She keeps Moët and Chandon in her pretty cabinet.
Am G7/B C
"Let them eat cake", she says, just like Mary Antoinette.

C Em C7 F
A built in remedy for Khrushchev and Kennedy,
Fm C/G F/G G7
And any time, an invitation, you can't de-cline.


[Bridge 1]

E7 Am G C
Caviar and cigarettes, well versed in etiquette.
B7 Em D7
Extra-ordinarily nice. She's a...


[Chorus 1]

G Bm Em Bm
Killer Queen, gunpowder, gelatine,
Em F#7 Bm
Dynamite with a laser beam.
E7 D/F# E7/G# A G
Guaran-teed to blow your mind; any time, ooh...

F# Bm E7 A
Recommended at the price, in-satiable in appetite;
A G D G/D C/D, G/D C/D, D, G C/G
Wanna try...?


[Verse 2]

Am G7/B
To a-void complications, she never kept the same address.
Am G7/B C
In conversation, she spoke just like a baroness.

C Em C7 F
Met a man from China, went down to Geisha Minah,
Fm C/G F/G G7
Then a-gain, inci-dentally, if you're that way in-clined.


[Bridge 2]

E7 Am
Perfume came naturally from Paris, (naturally),
G C B7 Em D7
For cars, she couldn't care less; fast-idious and pre-cise. She's a...


[Chorus 2]

G Bm Em Bm
Killer Queen, gunpowder, gelatine,
Em F#7 Bm
Dynamite with a laser beam.
E7 D/F# E7/G# A G
Guaran-teed to blow your mind; any time.


[Solo]

F# Bm F# Bm
e|------------------------|--2-3----2----------|
B|--5b7-5b7-7--3-3p2------|------5----3p2------|
G|-------------------4-4--|---------------4-4--|
D|------------------------|--------------------|
A|------------------------|--------------------|
E|------------------------|--------------------|

E Am E Am C/D
e|----------------0----------|--0-------------------------|
B|----x-3b5-r3-3----1p0------|----1-3--0-1p0--------------|
G|--x-------------------2-2--|---------------2------------|
D|---------------------------|-----------------3----------|
A|---------------------------|--------------------3-5--5--|
E|---------------------------|----------------------------|

e|--------------------|-------------------------|-----------------|
B|--3h5-3h5-5--1-3-3--|--5--3h5-3h5-5-5--1-3-3--|--5-6-7h9b10-10--|
G|--------------------|-------------------------|-----------------|
D|--------------------|-------------------------|-----------------|
A|--------------------|-------------------------|-----------------|
E|--------------------|-------------------------|-----------------|

Am G7/B
e|-----------------------------------|-----------------------------|
B|-----------------------------------|--15--15p12-13p12------------|
G|--12b14--12b14-12b13-13b14r13-9-9--|------------------14-14-7h9--|
D|-----------------------------------|-----------------------------|
A|-----------------------------------|-----------------------------|
E|-----------------------------------|-----------------------------|

Am G7/B C
e|---------------------------|-----------------------------------|
B|--10-----------------------|--12--12p9-10p9-12p10-13p12-15p13--|
G|------12b14-r12b14r12-9-9--|-----------------------------------|
D|---------------------------|-----------------------------------|
A|---------------------------|-----------------------------------|
E|---------------------------|-----------------------------------|

C Em C7 F
e|---------8-8----------------|----------12-------------------|
B|--15h17-------15b17r15-15---|--13--15-----13--15b17r15-p13--|
G|----------------------------|-------------------------------|
D|----------------------------|-------------------------------|
A|----------------------------|-------------------------------|
E|----------------------------|-------------------------------|

Fm C/G F/G G7
e|---------------------------|--------------------------|------------------|
B|------15-------------------|--15b17--15b17--15b17r15--|--15--15--15-15b--|
G|--13-----13-12--12-13--12--|--------------------------|------------------|
D|---------------------------|--------------------------|------------------|
A|---------------------------|--------------------------|------------------|
E|---------------------------|--------------------------|------------------|

C/G F/G G7
e|------15---------------------------|----------------------|
B|--17-----15b17--15b17--15b17--b18--|--18------------------|
G|-----------------------------------|----------------------|
D|-----------------------------------|----------------------|
A|-----------------------------------|----------------------|
E|-----------------------------------|----------------------|


[Bridge 3]

E7 Am E7 Am
Drop of a hat, she's as willing as, playful as a pussycat.
G C G C
Then momentarily out of action, temporarily out of gas;
B7 Em D
To absolutely drive you...

G D Gm D D7
Wi-ld, wi-ld... she's out to get you! She's a...


[Chorus 3]

G Bm Em Bm
Killer Queen, gunpowder, gelatine,
Em F#7 Bm
Dynamite with a laser beam.
E7 D/F# E7/G# A G
Guaran-teed to blow your mind; any time, ooh...

F# Bm E7 A
Recommended at the price, in-satiable in appetite;
A G D G/D C/D, D G C/G, C/D D G C/G, D G
What a drag...!


[Outro]

C7

(Repeat to Fade)


CHORD DIAGRAMS:
---------------

Am G7/B C Em C7 F Fm F/G

EADGBE EADGBE EADGBE EADGBE EADGBE EADGBE EADGBE EADGBE
x02210 x20001 x32010 022000 x32310 133211 133111 303210

G7 E7 G B7 D7 Bm F#7 D/F#

EADGBE EADGBE EADGBE EADGBE EADGBE EADGBE EADGBE EADGBE
323000 020100 320003 021202 xx0212 x24432 242322 2x0232

E7/G# A F# D G/D C/D C/G Gm

EADGBE EADGBE EADGBE EADGBE EADGBE EADGBE EADGBE EADGBE
xxx130 x02220 242322 xx0232 xx0003 x00010 332010 355333

Tabbed by Joel from cLuMsY, Bristol, England, 2004 (clumsyband@hotmail.com)


************************************

| x Dead note
| h Hammer-on
| p Pull-off
| r Release
| b Bend

************************************