Bohemian Rhapsody

Queen

Album: A Night at the Opera
Genero: Rock

Tablatura

Queen: Bohemian Rhapsody
Freddie Mercury /1975/

2'25" two gtrs arr. for one
e|------------|----------------------------------|----|
B|------------|----------------------------------|----|
G|------------|-8-------5----10------------------|-0/-|
D|------------|-8-------5----10-------------8----|-/0-|
A|------------|-6----5--3-----8----7-6--5---8----|----|
E|-5----4--3--|-----------------------------6----|----|

e|----------------------------------------------------------------------|
B|----------------------------------------------------------------------|
G|-8--------------------5--------------------------6-----------------2--|
D|-8--------------------5--------------------------6-----6-5-4---3---2--|
A|-6----5---3vv---------3----3-1-----8----7-6--5---4-----4-3-2---1---0--|
E|--------------4-3-2-3----------3-1------------------------------------|

[Solo]
e|-------------------------------------------------------------------------|
B|------------------11v---8---11b13vv------13v---15-16-13v---15-16-b18v----|
G|-----10b12__r10p8---------------------(xx)-------------------------------|
D|-8-----------------------------------------------------------------------|
A|-------------------------------------------------------------------------|
E|-------------------------------------------------------------------------|
------ -----
e|----------------15--16--18--b20v-----18--16--15-16-15h16p15----15---------------------------------------|
B|------------18----------------------------------------------18----18-16-15-16-15h16p15----15------------|
G|--------17-----------------------------------------------------------------------------17----17-15-15vv-|
D|---x-17-------------------------------------------------------------------------------------------------|
A|--------------------------------------------------------------------------------------------------------|
E|--------------------------------------------------------------------------------------------------------|

e|------------------15-16-18-------------------15-16-18--b20v--|
B|---------15-16-18-------------------15-16-18-----------------|
G|--15--17----------------------15-17--------------------------|
D|-------------------------------------------------------------|
A|-------------------------------------------------------------|
E|-------------------------------------------------------------|

e|------------------------------------------------------13------------9-9-9__\2------------|
B|-15-16-13v---15-16-13v---15-16-b18vv-----------------------------------------2---h3p2p0--|
G|----------------------------------------10-12-b13v----------b13v-----------------------2-|
D|-----------------------------------------------------------------------------------------|
A|-----------------------------------------------------------------------------------------|
E|-----------------------------------------------------------------------------------------|

4'7" two gtrs arr. for one
e|-----|------------------------------------------------------------------------------------------|
B|-----|------------------------------------------------------------------------------------------|
G|-----|------------------------------------------------------------------------------------------|
D|-8---|------------------------------------------------------------------------------------------|
A|-8---|-6---------------3-5-6---6-------------3-------6---------------3-5-6---8-------------5----|
E|-6---|-----3---4---6---------------3---4---6---6---------3---4---6---------------5---6---8---8--|

e|-----------------------------------------------------------------------------------------|
B|-----------------------------------------------------------------------------------------|
G|-------8--8----------------------6v-------------8--8--8------------------3---------------|
D|-8-----8--8--8---8---6-8-6------------8----8----8--8--8--6---------------3---3h5--3------|
A|-8-----6--6--8-------------8----------8----8----6--6--6--6---------------1-----------5-3-|
E|-6-----6--6--6---------------9--------6----6-------------4----4--3--1--------------------|

e|-------------------------------------------|
B|-------------------------------------------|
G|------3-----------------------3---------3--|
D|------3--------3-5p3----------3---------3--|
A|------1----4h5-------5p3------1---------1--|
E|-1-----------------------1---------1-------|

e|----------------------------------------------------------------------------------------------|
B|----------------------------------------------------------------------------------------------|
G|----------------------------------------------------------------------------------------------|
D|----------------------------------------------------------------------------------------------|
A|-6---------------3-5-6---6-------------3-------6---------------3-5-6---8---------------5-7-8--|
E|-----3---4---6---------------3---4---6---6---------3---4---6---------------5---6---8----------|

e|----------------------------------------|
B|----------------------------------------|
G|----------------------------------------|
D|-5-7-8---7-8-10---8-10-11---------------|
A|----------------------------------------|
E|---------------------------7----4----6--|

4'51" middle right left
e|-----------------------|-------------------------|-----------------------------------|
B|-----------------------|-------------------------|-----------------------------------|
G|-------------6---6-8-9-|-------------------------|-----------------------------------|
D|-------6-7-9---9-------|-------------------6-8-8-|------------------------------8----|
A|-6-7-9-----------------|---------6-8-9-8-9-------|-----------------8----8-10-11-8----|
E|-----------------------|-8-6-8-9-----------------|-10-8-10-8-10-11---11---------6----|

left right left
e|-------3-6-|---------6-|----------------|
B|-x---4-----|-------6---|--------8-b13v--|
G|---3-------|-7---7-----|-8----8---------|
D|-----------|---8-------|---10-----------|
A|-6---------|-5---------|-4--------------|