Another One Bites The Dust

Queen

Album: The Game
Genero: Rock

Tablatura (Ver letra)

[Intro]

G|---------------------------|---------------------------|
D|---------------------------|---------------------------|
A|---------------------------|---------------------------|
E|-5-3---0-0-0---0-0-0-3-0-5-|-5-3---0-0-0---0-0-0-3-0-5-|


[Main Riff/Verse]

G|-----------------------|-----------------------|-----------------------|-----------------------|
D|-----------------------|-----------------------|-----------------------|-----------------------|
A|-----------------------|-----------------------|-----------------------|-----------------------|
E|--0-0-0---0-0-0-3-0-5--|--0-0-0---0-0-0-3-0-5--|--0-0-0---0-0-0-3-0-5--|--0-0-0---0-0-0-3-0-5--|

G|-----------------------|-----------------------|-----------------------|
D|-----------------------|-----------------------|-----------------------|
A|-----------------------|-----------------------|-----------------------|
E|--0-0-0---0-0-0-3-0-5--|--0-0-0---0-0-0-3-0-5--|--0-0-0---0-0-0-3-0-5--|


[Pre-Chorus]

G|---------------------|---------------------|---------------------|-------------------|
D|--------------5------|---------------------|--------------5------|-------------------|
A|-3-3--3--4-5---------|-3-3--3--4-5---------|-3-3--3--4-5---------|-------------------|
E|-----------------3---|-----------------3---|-----------------3---|-5-5---5-6-7--7--3-|


[Chorus]

G|-----------------------|-----------------------|-----------------|-----------------|
D|-----------------------|-----------------------|-----------------|-----------------|
A|-----------------------|-----------------------|-----------------|-----------------|
E|--0-0-0---0-0-0-3-0-5--|--0-0-0---0-0-0-3-0-5--|-2--7-6--5-5-5---|--2----------3---|


[Verse]

G|-----------------------|-----------------------|-----------------------|-----------------------|
D|-----------------------|-----------------------|-----------------------|-----------------------|
A|-----------------------|-----------------------|-----------------------|-----------------------|
E|--0-0-0---0-0-0-3-0-5--|--0-0-0---0-0-0-3-0-5--|--0-0-0---0-0-0-3-0-5--|--0-0-0---0-0-0-3-0-5--|


[Pre-Chorus]

G|---------------------|---------------------|---------------------|-------------------|
D|--------------5------|---------------------|--------------5------|-------------------|
A|-3-3--3--4-5---------|-3-3--3--4-5---------|-3-3--3--4-5---------|-------------------|
E|-----------------3---|-----------------3---|-----------------3---|-5-5---5-6-7--7--3-|


[Chorus 2]

G|-----------------------|-----------------------|-----------------|-----------------|
D|-----------------------|-----------------------|-----------------|-----------------|
A|-----------------------|-----------------------|-----------------|-----------------|
E|--0-0-0---0-0-0-3-0-5--|--0-0-0---0-0-0-3-0-5--|-2--7-6--5-5-5---|--2----------3b-0|


(Bass Rest 24 Bars)


[Verse]

G|---------------------------|-----------------------|-----------------------|---------------------------|
D|---------------------------|-----------------------|-----------------------|---------------------------|
A|---------------------------|-----------------------|-----------------------|---------------------------|
E|-5-3---0-0-0---0-0-0-3-0-5-|--0-0-0---0-0-0-3-0-5--|--0-0-0---0-0-0-3-0-5--|-5-3---0-0-0---0-0-0-3-0-5-|


[Pre-Chorus]

G|---------------------|---------------------|---------------------|-------------------|
D|--------------5------|---------------------|--------------5------|-------------------|
A|-3-3--3--4-5---------|-3-3--3--4-5---------|-3-3--3--4-5---------|-------------------|
E|-----------------3---|-----------------3---|-----------------3---|-5-5---5-6-7--7--3-|


[Chorus 2]

G|-----------------------|-----------------------|-----------------|-----------------|
D|-----------------------|-----------------------|-----------------|-----------------|
A|-----------------------|-----------------------|-----------------|-----------------|
E|--0-0-0---0-0-0-3-0-5--|--0-0-0---0-0-0-3-0-5--|-2--7-6--5-5-5---|--2----------3---|


[Outro]

G|-----------------------|---------------------------|
D|-----------------------|---------------------------|
A|-----------------------|---------------------------|
E|--0-0-0---0-0-0-3-0-5--|-5-3---0-0-0---0-0-0-3-0-5-|


[Ending]

G|---------------------|---------------------|---------------------|-------------------|
D|--------------5------|---------------------|--------------5------|-------------------|
A|-3-3--3--4-5---------|-3-3--3--4-5---------|-3-3--3--4-5---------|-------------------|
E|-----------------3---|-----------------3---|-----------------3---|-5-5---5-6-7--7--3-|


************************************

| b Bend

************************************