Montevideo

Quebraditos

Genero:

Tablatura

E|-----------------------------------------------------------5----------|
B|-----------------------------------------------------------6----------|
G|-6-----------6-6-6-6-7-6-----------------------------------7---6------|
D|---7---7-7-9-------------9-7-6---6-6-7-9-9-9-9-7-6-7---7---7-----9-9--|
A|-----------------------------------------------------9-----5----------|
E|----------------------------------------------------------------------|

A E
Tal vez nunca te dije lo que estaba mal
D
Nunca te dije lo que estaba bien
Dm F# E
Quedaba solo esperando, siempre lo mismo

A E
Sabes, ya no es momento de poder cambiar
D
Me conociste perdiendo la fe
Dm F# E D
Quedaba solo esperando, siempre lo mismo



C D G E
A veces escucho tu voz, sonando con el viento
C D G E
Del este llegara tu voz, sonando con el viento
C D G E
No hago mas que pensar en vos, sera por todo eso
C D G
Pero te juro que a veces escucho tu voz



A E
Si nunca entiendo donde llegaras
D
Nunca viniste cuando estuve mal
Dm F# E
Pero te sigo soñando desde aquel tiempo

A E
Tal vez yo estoy fallando al querer intentar
D
Hoy olvidarte y tratar de pensar
Dm F# E D
Pero me quedo escabiando y siempre es lo mismo



C D G E
A veces escucho tu voz, sonando con el viento
C D G E
Del este llegara tu voz, sonando con el viento
C D G E
No hago mas que pensar en vos, sera por todo eso
C D G
Pero te juro que a veces escucho tu voz


D|---------1-1-1-1-4-4-4-4-4-4-4-4--|
A|-2-2-2-2--------------------------|


E F# B G#
A veces escucho tu voz, sonando con el viento
E F# B G#
Del este llegara tu voz, sonando con el viento
E F# B G#
Hoy vi tus cartas y tal vez sea por todo eso
E F# B G#
Pero te juro que a veces escucho tu voz
E F# B G
A veces escucho tu voz
E F# B
A veces escucho tu voz