Lejos De Mí

Quebraditos

Genero:

Tablatura

Lejos de mi


intro:
D G A D Bm A D

e------2---2-----3-----5------10-----10--------7-----9---------
b--------------------------------------------------------------
g--1/2---2---2/4---4/6---6/11-----11------6/7----7/9----9--7~~-
d--------------------------------------------------------------
a--------------------------------------------------------------
E--------------------------------------------------------------

D G A
Tantos momentos que pasamos juntos
Tu retrato guardado en el cajón
Y el deseo de volver a verte
Y el deseo de volver a verte

D Bm A

D
Lejos de mi volves a estar
Bm
Lejos de mi volves a estar
G A
Lejos de mi, vuelvo a llorar

[ARREGLO] EN LA 2 CUERDA: B------7--5~~~~---
Si siempre fuiste mi primer amor
Mi dulce chica, chica ideal
Si afuera llueve te extraño tanto
Dentro mío muero un poco mas

D
Lejos de mi volves a estar
Bm
Lejos de mi volves a estar
G A
La lluvia cae tan lenta como yo
A# Bm |E |Bm |A |G
AU AU AU AUUU | | | |
| | | |
e--------------------|--------------|---------------------|----------|-----
b------5--3~~~--3*5--|5/7---7*5--7--|5--3~~~--3--5--3--5--|7--5~~~---|-----
g--------------------|--------------|---------------------|----------|-----
d--------------------|--------------|---------------------|----------|-----
a--------------------|--------------|---------------------|----------|-----
E--------------------|--------------|---------------------|----------|-----


D
Lejos de mi volves a estar
Lejos de mi volves a estar
Lejos de mi vuelvo a llorar

Lejos de mi volves a estar
Lejos de mi volves a estar
El tiempo pasa y solo quiero olvidar

Lejos de mi

D G A D Bm A | |D
| |
e------2---2-----3-----5------10-----10--------7-----9--| |------10~~~~
b-------------------------------------------------------| |------------
g--1/2---2---2/4---4/6---6/11-----11------6/7----7/9----|x2|-9/11-------
d-------------------------------------------------------| |------------
a-------------------------------------------------------| |------------
E-------------------------------------------------------| |------------




CIFRADO AMERICANO:
C |D |E |F |G |A |B
| | | | | |
DO|RE|MI|FA|SOL|LA|SI

*:LIGADO
/:ARRASTRE
~:DEJAR SONAR,VIBRATO, QUE SE YO.