La Vuelta

Quebraditos

Genero:

Tablatura

Riff

E|-------------------|---------------------------------|
B|-------------------|---------------------------------|
G|-4s9-------11-9----|-9---------------------9--9--9--9|
D|-------------------|---9-6-7---7-6-------------------|
A|-------------------|---------------9-7---7--7--7--7--|
E|-------------------|---------------------------------|

|-------------------------------------------------|
|-----------------------------------------7-------|
|-6-----------------------6-6-6-6-8-8-8-8---8-6---|
|---6-9-7---7-6-7-9---9-9-----------------------9-|
|-------------------------------------------------|
|-------------------------------------------------|

Estrofa:

E A E
Ya no me humilles más, te pido por favor
C# B
Camino en el andén esperando
A C# B
Que el tren se lleve algún recuerdo hoy

E A E
Decime qué hacer no encuentro solución
C# B A
Siento que todo esto no tiene sentido
C# B
Si no te tengo a mi lado hoy

Estribillo:

E A
No le encuentro la vuelta
E A
Ya se hizo muy tarde
C# B
Me incendio en mi cama, sin poder dormir

E A E A
Solo espero el día, que cruces por la puerta
C# B
Pero de ilusiones tengo que vivir


Repite Riff


Estrofa:

Decime qué hacer no encuentro solución
Camino en el andén esperando
Que el tren se lleve algún recuerdo hoy

Dejé pasar la vida esperándote
Que si me abrís el pecho
Encontrás un hueco, en vez de mi oscuro corazón

Estribillo:

No le encuentro la vuelta
Ya se hizo muy tarde
Me incendio en mi cama, sin poder dormir

Solo espero el día, que cruces por la puerta
Pero de ilusiones tengo que vivir

No le encuentro la vuelta
Ya se hizo muy tarde
Me incendio en mi cama, sin poder dormir

Solo espero el día, que cruces por la puerta
Pero de ilusiones tengo que vivir

E|-------------------|---------------------------------|
B|-------------------|---------------------------------|
G|-4s9-------11-9----|-9---------------------9--9--9--9|
D|-------------------|---9-6-7---7-6-------------------|
A|-------------------|---------------9-7---7--7--7--7--|
E|-------------------|---------------------------------|

|-------------------------------------------------|
|-----------------------------------------7-------|
|-6-----------------------6-6-6-6-8-8-8-8---8-6---|
|---6-9-7---7-6-7-9---9-9-----------------------9-|
|-------------------------------------------------|
|-------------------------------------------------|

|----------------------------------------------------------------------------|
|----------------------------------------------------------------------------|
|----------------------------------------------------------------------------|
|-9-9-9-9-7-7-7-7-6-6-6-6----------9-9-9-9-7-7-7-7-6-6-6-6---------9---------|
|-------------------------9-9-9-9--------------------------9-9-9-9-----------|
|----------------------------------------------------------------------------|