Encuentro Casual

Quebraditos

Genero:

Tablatura

Esta cancion es de las
mejores de los quebraditos..
a ver si esta bien por que
no soy muy bueno.

* DEJAR SONANDO


Intro

F-A-A#-C

Mientras toca el intro, la primera guitarra
hace esto:

(EL SOLO EMPIESA CON UN SLIDE DEL TRASTE 1 AL 7 DE LA CURDA SOL
Y EMPIESA EL SOLO.)

e|----------------------|
B|----------------------|
G|-7-9-10-9-7-5-7-5-7-5-|
D|----------------------|
A|----------------------|
E|----------------------|


e|-------------------------------|
B|-------------------------------|
G|-5-5-5-5-5-5-5-9-9-9-9-9-9-9-9-|
D|-------------------------------|
A|-------------------------------|
E|-------------------------------|





e|-------------------------------------------|
B|-------------------------------------------|
G|-10-10-10-10-12-10-12-14-14-12-14-14-15-14-|
D|------------- -----------------------------|
A|-------------------------------------------|
E|-------------------------------------------|









Y CREO KE ANTES DE EMPESAR A CANTAR, SIGUE ESTO:

e|--------------|
B|--------------|
G|--------------|
D|--------------|
A|-7*-7-5*-5-3*-|
E|--------------|

Y LUEGO YA EMPIESA LO KE SON LOS VERSOS...



F A A#
Esa chica sentada en el parque
C
estaba sola y era linda de verdad
F A
fui y me senté a su lado
A# C
y al toque nos pusimos a conversar.



F A
Tenia una vida complicada,
A#
el padre siempre le pegaba,
C
y escapó de su hogar,



F A
la ayude con las valijas,
A#
la llevé hasta mi casa,

le serví un café,
C
y le dijé que se quedara
A# C
le dije que se quedara...
A# C
le dije que se quedara...
F A A# C
en E hogar... en E hogar




F A
una noche de alcohol sexo casual,
A# C
Una mañana solitaria, y en mi cama ya no está
F A
te fuiste sin despedidas,
A# C
las formas de tu cuerpo ya no podré besar,




DESPUES LA GUITARRA HACES ESTE ARREGLO

G|--------------------------------------------10-10-9-10-9-7-9-|
D|-7-7-7-7-7-7-7-7-8-10-8-8-8-8-8-8-8-8-10-12------------------| X3









A A#
Me partiste la cabeza,
F E D
y me fui enamorando,
A A#
de una chica hermosa,
F E D
que ahora ya no esta
F A A# C
ya no esta...



ESPERO KE ESTE BIEN
Y KE LES PUEDA SERVIR...


DEDICADA A MI BUJA
KE LE GUSTA MUCHO ESTA BANDA...

TE AMO YURI