En La Estación

Quebraditos

Genero:

Tablatura

|-------------------------------------------------------------10/15-14-15~~-
|----------5-8-7-------------5-8/10-8-7------------5-8-7--------------------
|-5~~5-7-----------5~~5-7----------------5~~5-7-----------------------------
|---------------------------------------------------------------------------
|---------------------------------------------------------------------------
|---------------------------------------------------------------------------

|---------------------------------------------------------------------------
|----------5-8-7-------------5-8/10-8-7-------------5-8-7-------------------
|-5~~5-7-----------5~~5-7-----------------5~~5-7-------------9/12-11-9-8-7~~
|---------------------------------------------------------------------------
|---------------------------------------------------------------------------
|---------------------------------------------------------------------------

Los acordes en la rola.
G-Em-Bm-C-D
CORO: C-D-G-Em.

|-19------------------------------------------------------
|-----17--20--17------17----------------------------------
|-----------------19------17--19--19--21--19------19------
|---------------------------------------------19----------
|---------------------------------------------------------
|---------------------------------------------------------

|--19^15------15--19^15------15--19^15--- esto sigue
|---------17-------------17-------------- varias veces
|---------------------------------------- y termina en el
|---------------------------------------- traste 20 en la
|---------------------------------------- segunda cuerda.
|----------------------------------------