Lobo Gris

Que

Genero:

Tablatura

Bajo
A|--------------||------------------||--------------------------||
D|--------------||------------------||--------------------------||
A|----------7---||------------------||----------7---------------||
E|-0--0-0-7---6-||-6-7--3-5-3-2-1-0-||-0--0-0-7---6-5-6-5-6-5-3-||

Guitarra 1
e|--------------||------------------||------------0-------------||
B|--------------||------------------||------------1-------------||
G|-0------------||------------------||-0----------3-------------||
D|-2------------||-2----------------||-2------------------------||
A|-2--2-----7---||-2----------------||-2--2-----7-------3-------||
E|-0--0-0-7---9-||-0----------------||-0--0-0-7-----------------||

Guitarra 2
e|--------------||------------------||--------------------------||
B|--------------||------------------||------------3-------------||
G|--------------||------------------||------------3-------------||
D|--------------||-8-9--5-7-5-4-3-2-||------------2-------------||
A|----------7---||------------------||----------7-3-------------||
E|-0--0-0-7---3-||------------------||-0--0-0-7-----------------||


Em C7 Em C7/9
Soy el lobo gris que camina en la estepa
Em C7 Em C7/9
en el mundo frío, cubierto de nieve
Em C7 Em C7/9
sobre mi cabeza vuelan los cuervos
Em C7 Em C7/9
pero quiero hallar un ciervo o una liebre
Em C7 Em C7/9 Em C7 Em C7/9
(la sangre, ro--ja, dulce).

Si encontrara un ciervo le daría mi amor
hundiendo en sus ancas, mis secos dientes
tomaría así toda su sangre roja
para después aullar solo en el hielo ardiente.

G B7 Em C7
No espero más que eso, del mundo sin piedad.

Soy el animal que escapó de la jaula
para sufrir solo mi muerte viviente
bebo la repulsa de los otros mortales
para alimentar a mi triste simiente.

No espero más del tiempo en el mundo sin piedad,
que el diablo se adueñe de mi pobre alma.

Si encontrara un ciervo le daría mi amor
hundiendo en sus ancas, mis secos dientes
tomaría así toda su sangre roja
para después aullar solo en el hielo ardiente.

e|-(12)---------------------------------------------------------|>
B|---------12/11-------------8/10--11---------------------8~11~-|>
G|------------------9/11/12------------9-7--------------7-------|>
D|------------------------------------------9-7-5---7/9---------|>
A|------------------------------------------------7-------------|>
E|--------------------------------------------------------------|>

e|-10----10----12----12--12/15-17-18-18-18-19/17/15/17----------|>
B|----12----11--------------------------------------------------|>
G|----------------------------------------------------------7-9-|>
D|------------------------------------------------------7-9-----|>
A|--------------------------------------------------------------|>
E|--------------------------------------------------------------|>

e|--------------------12-15/12---------------------9-10-12-14-15-||
B|-8>>>11---------8------------10-9-10-8-7-8-10-12---------------||
G|---9--------7-9---9--------------------------------------------||
D|--------7-9----------------------------------------------------||
A|---------------------------------------------------------------||
E|---------------------------------------------------------------||

No espero más que eso, del mundo sin piedad,
que el diablo se adueñe de mi pobre alma.