Cristalizar

Que

Genero:

Tablatura

  Riff1            Riff2                   Riff3
e|-------------|| |--------------------|| |------------------------||
B|-------------|| |--------------------|| |------------------------||
G|-------------|| |--------------------|| |------------------------||
D|-------------|| |--------------------|| |------------------------||
A|-2-2-4-------|| |-----2---4----2---4-|| |---2-5-4----2-5-4-5-4-5-||
E|-------5-3-3-|| |-3-3---3----3---3---|| |-3--------3-------------||

Riff4
e|-------------------5-6-5-----------------------------------------||
B|-7--8-7-5-7--5-7-8-------8-7-5-7-5---------------5-7-5-----------||
G|-----------------------------------7-6-6-7-6-6-7-------7-6-4-----||
D|-------------------------------------------------------------4-4-||
A|-----------------------------------------------------------------||
E|-----------------------------------------------------------------||

Riff5
e|--------------------||
B|---2----5----2----5-||
G|---4----4----4----4-||
D|---4----5----4----5-||
A|------4---------4---||
E|-3---------3--------||

Riff6 Riff7 Riff8 Riff9
e|---------------|| |---------------|| |---------------|| |-------------------||
B|---------------|| |---------------|| |---------------|| |-------------------||
G|---------------|| |---------------|| |---------------|| |-------------------||
D|---------------|| |---------------|| |---------------|| |-------------------||
A|-4-4-5-4-2-----|| |-6-6-7-6-4-----|| |-7-7-8-7-5-----|| |-10-10-11-10-8-----||
E|-----------3-3-|| |-----------5-5-|| |-----------6-6-|| |---------------9-9-||

Riff10
e|---------------------------------------------------
B|-14-12-12-12--10-10-10--8-8-8--7-7-7-8-7-5---------
G|-13-11-11-11---9--9--9--7-7-7--6-6-6-------6-------
D|---------------------------------------------------
A|---------------------------------------------------
E|---------------------------------------------------


Riff1 x4

Riff1 x8
Quiero cristalizar todos mis sentimeintos
hasta herir al mal con la frialdad del silencio.
Riff2 x4
Viento de la piedad tan fragil y lento
tibio, para curar la oscuridad de un tormento.
Riff3 x4
Quiero enfrascar todas mis ilusiones
para que no se vuelen
para formar mis montañas mis soles
mis cables y mis redes.
Riff2 x4
Quiero congelar cada fragmento de mi alma
hasta desangrar todo lo que me desarma.
Riff3 x4
Para acabar con la negra locura
que incendia a nuestro infierno.
Para privar a los sueños de piedras
y a las piedras de sueños.

Riff4

Riff2 x4
Quiero cristalizar todos mis sentimeintos
hasta herir al mal con la frialdad del silencio.
Riff3 x4
Quiero enfrascar todas mis ilusiones
para que no se vuelen
para formar mis montañas mis soles
mis cables y...

Cmaj7 Dsus2
Los cielos no son cielos
Em C#7(#9)
son enormes desparaisos
Cmaj7 Dsus2 Em C#7(#9)
presos en sepultu--ras...
Cmaj7 Dsus4
Y las almas se matan
Em C#7(#9)
se asesinan se diluyen
Cmaj7 Dsus2 Em C#7(#9)
por los dioses de las fabu--las...
F#maj7(#11) Gmaj7(#11) Riff2 x4
y yo trato de respirar...

Riff2 x4
Quiero congelar cada fragmento de mi alma
hasta desangrar todo lo que me desarma.

Riff4 x2 Riff5

Riff5 x12
Quiero cristalizar... para acabar con la negra locura
que incendia a nuestro infierno.
Quiero cristalizar... Para privar a los sueños de piedras
y a las piedras de sueños.
(voy a acercarme a la muerte otra vez)

Riff6 x8 Riff7 x4 Riff8 x4 Riff9 x4 Riff10 x2

ACORDES
Cmaj7 Dsus2 Em C#7(#9) F#maj7(#11) Gmaj7(#11)
|||||| |||||| |||||| |||||| |||||| ||||||
||o||| |||o|| |oo||| |||||| oooooo ||||||
|o|||| ||||o| |||||| ||o||| o||||| oooooo
|||||| |||||| |||||| |o|o|| ||oo|| o|||||
|||||| |||||| |||||| ||||o| |||||| ||oo||
|||||| |||||| |||||| |||||| |||||| ||||||