Si Escucharas El Silencio

Quarto Aparte

Genero:

Tablatura

SI ESCUCHARAS EL SILENCIO

INTRO

E|------------0-5-4-2-0--|-------0--|
B|--------0-0-0-5-5-3-2--|-----0-2--|
G|-----1/2---------------|--1-2-----|
D|--2/4------------------|-2--------|
A|-0---------------------|----------|
E|-----------------------|----------|

E|----------------0-2-0--|-------0--|
B|--------0-0-0-5-0-2-0--|-----0-2--|
G|-----1/2---------------|--1-2-----|
D|--2/4------------------|-2--------|
A|-----------------------|----------|
E|-----------------------|----------|

E|------------0-5-4-2-0--|-------0--|
B|--------0-0-0-5-5-3-2--|-----0-2--|
G|-----1/2---------------|--1-2-----|
D|--2/4------------------|-2--------|
A|-----------------------|----------|
E|-----------------------|----------|

E|----------------0-2-0--|
B|--------0-0-0-5-0-2-0--|
G|-----1/2---------------|
D|--2/4------------------|
A|-----------------------|
E|-----------------------|


A
Hoy después de un tiempo
E
He vuelto a pensar
A
Si decirte lo que siento,
E
Al verte llegar.


F#m
Es que es tan grande el sentimiento
E
Que me ahoga al mismo tiempo
F#m
Y me da miedo, mucho miedo
E
Volver a fracasar.


A E
Si entendieras el idioma del silencio
A
Donde una mirada dice
E
Más que las palabras
A E
Si supieras que te pienso a cada instante
A
Comprendieras que te quiero y me da
E
Miedo acercarme...

... me da miedo acercarme.


A
Y pienso si que pienso
E
Intentarlo de nuevo
A
Y me da vuelta en la cabeza,
E
El sutil recuerdo
F#m E
De los cuerpos abrazados en la noche
F#m
Compartiendo juntos
E
El idioma del silencio


A
Caminar bajo la lluvia,
E
Sin hablar me di cuenta
F#m
Que un beso y un abrazo
E
Llevan palabras en las manos

A E
Si entendieras el idioma del silencio
A
Donde una mirada dice
E
Más que las palabras
A E
Si supieras que te pienso a cada instante
A
Comprendieras que te quiero y me da
E
Miedo acercarme... X 2

OJGP