Ruta 66

Pappo

Album: Pappo & Amigos
Genero: Rock

Tablatura (Ver letra)

e|--------------------------------|
B|--------------------------------|
G|-----------5-3h4------5-3h4-----| intro x 4
D|-----------5-----5--5-------5---|
A|--------------------------------|
E|--0-1-2-3-----------------------|
G5 C5 G5
bueno se que tu planeas ir
C5 G5
por la autopista del oeste hasta su fin
D5 C5 G5 D5
andaras bien por la 66

se menea de chicago hasta eleine
son dos mil millas, mas tambien podras hacer
andaras bien por la 66

G5
va por san luis abajo esta misuri
ciudad de oklajoma es tan bonita que
C5 G5
veras amarillo galu hasta mexico ESTRIBILLO
C5
kansas arizona no olvides wemona
G5
grandes olas rompen san bernandino es
C5 G5
eso lo querias ver
C5 G5
en este viaje mas tambien podras hacer
D5 C5 G5
andaras bien por la 66

solo x 2

ESTRIBILLO

andaras bien por la 66 x 2

e||----------------------------------|---------------------|
B||----------------------------------|---------------------|
G||-----------5-3h4-------10-8-9-----|---------------------|
D||-----------5-----5--10--------10--|-- G como intro -----|
A||----------------------------------|---------------------|
E||--0-1-2-3-------------------------|---------------------|

e|----------------------------------|---------------------|
B|----------------------------------|---------------------|
G|------10-8h9-------10-8h9---------|-- Gcomo intro ------|
D|--10--10-----10-10--------10------|---------------------|
A|--10------------------------------|---------------------|
E|--8-------------------------------|---------------------|

e|----------------------------------|---------------------||*
B|----------------------------------|---------------------||
G|-----12-10h11-----10-8h9----------|---------------------|| x 2
D|--12-12------12-10-------10-------|-- G como intro -----||
A|--12------------------------------|---------------------||
E|--10------------------------------|---------------------||*

e|---------------------------------------------------------|
B|---------------------------------------------------------|
G|--------------riff en do sol re re + una vuelta completa-|
D|--5----5----5--------------------------------------------|
A|--5----5----5--------------------------------------------|
E|--3----3----3--------------------------------------------|
|| || |*
||solo||ESTRIBILLO|*X 2
||x 2 || |*