El Viejo

Pappo

Album: Pappo & Amigos
Genero: Rock

Tablatura (Ver letra)

    |---------------------------|           |---------------------|
|---------------------------| |---------------------|
|---------------------------| riff 1 |---------------------| riff 3
|---------------------------| |---------------------|
|--------5---4--2-----------| |---------------------|
|---0-0----0-------3--4-----| |-0--0--1--1--2--2--3-|



|---------------------------|
|---------------------------|
|---------------------------| riff 2
|--------5---4--2-----------|
|---0-0----0-------3--4-----|
|---------------------------|



riff 1x4


Qué nos ocurre después de tanto tiempo (riff 1)


reflexionamos al vernos al espejo (riff 1)


qué es lo que pasa, me estoy viniendo viejo (riff 2)

(riff 1) (riff 3)
no sé ya qué pensar, si ya no sé qué es lo que pienso.




G
Yo soy un hombre bueno,

D7
lo que pasa es que me estoy viniendo viejo;

F Em
trataré de hacer las cosas a su tiempo,

G Bb D7
o si no no le daré importancia al cuerpo, oh no.





No puede ser que esto me preocupe (riff 1)


si estoy naciendo, que bueno, que bueno (riff 1)


para qué tantos años de experiencia (riff 2)

(riff 1) (riff 3)
si justo ahora me doy cuenta que no tengo.





G
Yo soy un hombre bueno,

D7
lo que pasa es que me estoy viniendo viejo;

F Em
trataré de hacer las cosas a su tiempo,

G Bb D7
o si no no le daré importancia al cuerpo, oh no.



Solo

|---------------------|
|--/7--7~.------------|
|--/7--7~.--5~.-------|
|-------------7-6-5---|
|-------------------8-|
|---------------------|