Pieprz

O.n.a.

Genero: Rock

Tablatura

-------------------------------------------------------------------------------
O.N.A. - Pieprz [1999]
-------------------------------------------------------------------------------
Tabbed by: Jakub Rykowski

Tuning: Standard

Octaver would be recommended.

[tab]Intro
e|---------------------------------|
B|---------------------------------|
G|---------------------------------|
D|---------------------------------|
A|---------------------16--16------|
E|-----15p4~---15p4~---------------|[/tab]

[tab]e|-----------------------|
B|-----------------------|
G|-----------------------|
D|---------------6~------|
A|-----5---5-------------|
E|-------4---4-----------|[/tab]

During verse:

[tab]e|-----------|
B|----15*----|
G|-----------|
D|-----------|
A|-----------|
E|-----------|[/tab]

Chorus

[tab]e|-------------------------------------|
B|-------------------------------------|
G|-------------------------------------|
D|-------------------------------------|
A|----------5h6-------5h6-----5h6------|
E|----4--4------4----------4-----------|[/tab]

Solo (rhythm)

[tab]e|---------------------------------------|
B|---------------------------------------|
G|---------------------------------------|
D|------------7~-------------------------|
A|----6-6-6-6-5~-6-6-6-6--6/7-6/7--------|
E|----4-4-4-4----4-4-4-4--4/5-4/5--------|[/tab]



************************************

| / slide up
| h hammer-on
| p pull-off
| ~ vibrato
| * harmonic


************************************