Dragostein Din Tei

O-zone

Genero: Pop

Tablatura

Tuning:Standard

[tab]e|-----------------------------12-10-----------------------------------------|
B|13-12-13-10-10-12-10------13-------12-------15-13-12-13-12-----------------|
G|---------------------12-9-------------12-12----------------14--------------|
D|---------------------------------------------------------------------------|
A|---------------------------------------------------------------------------|
E|---------------------------------------------------------------------------|[/tab]

[tab]e|-----------------------------12-10-----10------------------------------------|
B|13-12-13-10-10-12-10------13-------12-----12-13-12-10------------------------|
G|---------------------12-9----------------------------------------------------|
D|-----------------------------------------------------------------------------|
A|-----------------------------------------------------------------------------|
E|-----------------------------------------------------------------------------|[/tab]

repeat 2 times