Dragostea Din Tei

O-zone

Album: DiscO-Zone
Genero: Pop

Tablatura (Ver letra)

#----------------------------------PLEASE NOTE---------------------------------#
#This file is the author's own work and represents their interpretation of the #
#song. You may only use this file for private study, scholarship, or research. #
#------------------------------------------------------------------------------#

DRAGOSTEA DIN TEI
As recorded by O-Zone
(From the 2004 Album DISCO-ZONE)

Transcribed by Martijn


Words and Music by Dan Balan

Gtr I (E A D G B E) - 'Vocals'
Gtr II (E A D G B E) - 'Guitar'

[tab] Intro
Q=130
2/4 4/4
Gtr I
E E E E +Q Q E E E E +Q Q E E E E
|-------5-|-(5)-------------3-|-(3)-------------3-|
|---0-----|-------------0-----|-------------0-----|
|-5---5---|-----------5---5---|-----------5---5---|
|---------|-------------------|-------------------|
|---------|-------------------|-------------------|
|---------|-------------------|-------------------|[/tab]
|
[tab]| Gtr II
| E E E E E E E E E E E E E E E E E E E E
|-----0---|-------------------|---------0---0-3-0-|
|---1---1-|---------------1---|--1----1---1-------|
|-2-------|---------2---2---2-|-----0-------------|
|---------|--3----3---3-------|-------------------|
|---------|-----3-------------|-------------------|
|---------|-------------------|-------------------|[/tab]


[tab] +Q Q E E E E E E Q E E E E
|-(3)-------------8-|---5-----------5---|
|-------------0-----|-----------0-------|
|-----------5---5---|---------5---5-----|
|-------------------|-------------------|
|-------------------|-------------------|
|-------------------|-------------------|[/tab]
|
[tab]| E E E E E E E E E E E E E E E E
|-------------------|-------------0-----|
|---------0---0-3-0-|-------1---1---1---|
|--0----0---0-------|-2---2---2---------|
|-----0-------------|---2---------------|
|-------------------|-------------------|
|-------------------|-------------------|[/tab]


[tab] +Q Q E E E E +Q Q E E E E +Q Q E E E E E E Q E E E E
|-(5)-------------3-|-(3)-------------3-|-(3)-------------8-|---5-----------5-|
|-------------0-----|-------------0-----|-------------0-----|-----------0-----|
|-----------5---5---|-----------5---5---|-----------5---5---|---------5---5---|
|-------------------|-------------------|-------------------|-----------------|
|-------------------|-------------------|-------------------|-----------------|
|-------------------|-------------------|-------------------|-----------------|[/tab]
|
[tab]| E E E E E E E E E E E E E E E E E E E E E E E E E E E E E E E E
|-------------------|---------0---0-3-0-|-------------------|-------------0---|
|---------------1---|--1----1---1-------|---------0---0-3-0-|-------1---1---1-|
|---------2---2---2-|-----0-------------|--0----0---0-------|-2---2---2-------|
|--3----3---3-------|-------------------|-----0-------------|---2-------------|
|-----3-------------|-------------------|-------------------|-----------------|
|-------------------|-------------------|-------------------|-----------------|[/tab]


[tab] +Q Q E E E E +Q Q E E E E +Q Q E E E E E E Q E E E E
|-(5)-------------3-|-(3)-------------3-|-(3)-------------8-|---5-----------5-|
|-------------0-----|-------------0-----|-------------0-----|-----------0-----|
|-----------5---5---|-----------5---5---|-----------5---5---|---------5---5---|
|-------------------|-------------------|-------------------|-----------------|
|-------------------|-------------------|-------------------|-----------------|
|-------------------|-------------------|-------------------|-----------------|[/tab]
|
[tab]| E E E E E E E E E E E E E E E E E E E E E E E E E E E E E E E E
|-------------------|---------0---0-3-0-|-------------------|-------------0---|
|---------------1---|--1----1---1-------|---------0---0-3-0-|-------1---1---1-|
|---------2---2---2-|-----0-------------|--0----0---0-------|-2---2---2-------|
|--3----3---3-------|-------------------|-----0-------------|---2-------------|
|-----3-------------|-------------------|-------------------|-----------------|
|-------------------|-------------------|-------------------|-----------------|[/tab]


[tab] Q Q E E E E +Q Q E E E E +Q Q E E E E E E H.
|-5-------------3-|-(3)-------------3-|-(3)-------------8-|---5--------------||
|-----------0-----|-------------0-----|-------------0-----|------------------||
|---------5---5---|-----------5---5---|-----------5---5---|------------------||
|-----------------|-------------------|-------------------|------------------||
|-----------------|-------------------|-------------------|------------------||
|-----------------|-------------------|-------------------|------------------||[/tab]
|
[tab]| E E E E E E E E E E E E E E E E E E E E E E E E E E E E E E E E
|-----------------|---------0---0-3-0-|-------------------|--------------0---||
|-------------1---|--1----1---1-------|---------0---0-3-0-|--------1---1---1-||
|-------2---2---2-|-----0-------------|--0----0---0-------|-2---2----2-------||
|-3---3---3-------|-------------------|-----0-------------|---2--------------||
|---3-------------|-------------------|-------------------|------------------||
|-----------------|-------------------|-------------------|------------------||[/tab]


[tab] Verse
H. E E +Q H E E +Q H E E
|-------------|---------------|---------------|
|-------------|---------------|---------------|
|-------------|---------------|---------------|
|-----------3-|-(3)---------2-|-(2)---------0-|
|-------------|-----------3---|---------------|
|---------5---|---------------|-----------3---|[/tab]


[tab] +Q E Q +S S E E +Q Q. S S E E
|---------------------|--------------------|
|---------------------|--------------------|
|---------------------|--------------------|
|-(0)-----------------|-----------2---2-3--|
|-------------------0-|-(0)----------------|
|--------3--(3)---3---|--------------------|[/tab]


[tab] +Q Q. E E E E E E Q +S S E E E Q. E E E E +E Q. Q E E
|-----------------|--------------------|----------------|-------------3-5--|
|-----------------|--------------------|----------------|------------------|
|-----------------|----------------0---|----------------|------------------|
|-(3)-------3---2-|------------------0-|----------------|------------------|
|-----------------|---3----------------|----------3-2-3-|-(3)-0------------|
|-----------------|-------3--(3)-------|---3------------|------------------|[/tab]


[tab] +Q Q. E E E +Q H E E
|-(5)-------8-5-3-|-(3)-------8-10-|
|-----------------|----------------|
|-----------------|----------------|
|-----------------|----------------|
|-----------------|----------------|
|-----------------|----------------|[/tab]


[tab] +Q Q +S S E E E +E E E E E E E E
|-(10)--8--(8)---8-7-8-|-(8)-12---12------------|
|----------------------|---------------13-------|
|----------------------|--------------------14--|
|----------------------|------------------------|
|----------------------|------------------------|
|----------------------|------------------------|[/tab]


[tab] +Q Q. E E E Q. E E E E E
|------------12-------|-----------------10-|
|---------------13----|--------------------|
|-(14)-------------14-|-12------12-12------|
|---------------------|--------------------|
|---------------------|--------------------|
|---------------------|--------------------|[/tab]


[tab] +E. S Q Q E E +E E. E. Q E E
|-(10)---8--10--7-8-|-(8)-5-----8--7-8--||
|-------------------|-------------------||
|-------------------|-------------------||
|-------------------|-------------------||
|-------------------|-------------------||
|-------------------|-------------------||[/tab]


[tab] Chorus
+Q Q E E E E H E E E E H E E E E E E E E Q E E
|-(8)--5--5-7-5-3-|--0----8-12-10-8-|---------10-8-7-|--8-7-5---8--7-8-|
|-----------------|-----------------|--8----8--------|-----------------|
|-----------------|-----------------|----------------|-----------------|
|-----------------|-----------------|----------------|-----------------|
|-----------------|-----------------|----------------|-----------------|
|-----------------|-----------------|----------------|-----------------|[/tab]
|
[tab]| Gtr II
| W W W W
|-^1--------------|-^0--------------|-^3-------------|-^0--------------|
|-^1--------------|-^1--------------|-^3-------------|-^1--------------|
|-^2--------------|-^0--------------|-^4-------------|-^2--------------|
|-^3--------------|-^2--------------|-^5-------------|-^2--------------|
|-^3--------------|-^3--------------|-^5-------------|-^0--------------|
|-^1--------------|-^0--------------|-^3-------------|-^0--------------|[/tab]


[tab] +Q Q E E E E H Q E E +Q E Q. E E +E Q. Q E E
|-(8)--5--5-7-5-3-|--0----8--10-10-|-(10)--7-10----7-8-|-(8)-5----8--7-8-|
|-----------------|----------------|-------------------|-----------------|
|-----------------|----------------|-------------------|-----------------|
|-----------------|----------------|-------------------|-----------------|
|-----------------|----------------|-------------------|-----------------|
|-----------------|----------------|-------------------|-----------------|[/tab]
|
[tab]| W W W W
|-^1--------------|-^0-------------|-^-3---------------|-^0--------------|
|-^1--------------|-^1-------------|-^-3---------------|-^1--------------|
|-^2--------------|-^0-------------|-^-4---------------|-^2--------------|
|-^3--------------|-^2-------------|-^-5---------------|-^2--------------|
|-^3--------------|-^3-------------|-^-5---------------|-^0--------------|
|-^1--------------|-^0-------------|-^-3---------------|-^0--------------|[/tab]


[tab] +Q Q E E E E H E E E E H E E E E E E E E Q E E
|-(8)--5--5-7-5-3-|--0----8-12-10-8-|---------10-8-7-|--8-7-5---8--7-8-|
|-----------------|-----------------|--8----8--------|-----------------|
|-----------------|-----------------|----------------|-----------------|
|-----------------|-----------------|----------------|-----------------|
|-----------------|-----------------|----------------|-----------------|
|-----------------|-----------------|----------------|-----------------|[/tab]
|
[tab]| W W W W
|-^1--------------|-^0--------------|-^3-------------|-^0--------------|
|-^1--------------|-^1--------------|-^3-------------|-^1--------------|
|-^2--------------|-^0--------------|-^4-------------|-^2--------------|
|-^3--------------|-^2--------------|-^5-------------|-^2--------------|
|-^3--------------|-^3--------------|-^5-------------|-^0--------------|
|-^1--------------|-^0--------------|-^3-------------|-^0--------------|[/tab]


[tab] +Q Q E E E E H Q E E +Q E Q. E E
|-(8)--5--5-7-5-3-|--0----8--10-10-|-(10)--7-10----7-8-||
|-----------------|----------------|-------------------||
|-----------------|----------------|-------------------||
|-----------------|----------------|-------------------||
|-----------------|----------------|-------------------||
|-----------------|----------------|-------------------||[/tab]
|
[tab]| W W W
|-^1--------------|-^0-------------|-^-3---------------||
|-^1--------------|-^1-------------|-^-3---------------||
|-^2--------------|-^0-------------|-^-4---------------||
|-^3--------------|-^2-------------|-^-5---------------||
|-^3--------------|-^3-------------|-^-5---------------||
|-^1--------------|-^0-------------|-^-3---------------||[/tab]


[tab] Verse
+E Q.. E. E E +Q H E E
|-(8)-5------------|---------------|
|------------------|---------------|
|------------------|---------------|
|----------------3-|-(3)---------2-|
|------------------|-----------3---|
|--------------5---|---------------|[/tab]


[tab] +Q H E E +Q Q. E E E +Q H E E
|---------------|-----------------|----------------|
|---------------|-----------------|----------------|
|---------------|-----------------|----------------|
|-(2)---------0-|-(0)-------------|-------------3--|
|---------------|---------------0-|-(0)-------0----|
|-----------3---|-----------3-----|----------------|[/tab]


[tab] +Q Q. E E E E E E Q E E E E Q. E E E E +E Q. Q E E
|-----------------|----------------|----------------|-------------0-5-|
|-----------------|----------------|----------------|-----------------|
|-----------------|------------0---|----------------|-----------------|
|-(3)-------3---2-|--------------0-|----------------|-----------------|
|-----------------|---3------------|---3------3-2-3-|-(3)-0-----------|
|-----------------|-------3--------|----------------|-----------------|[/tab]


[tab] +Q Q. E E E +E. H. S H E E E E +E E E E E E E E
|-(5)-------8-5-3-|-(3)-----------|--------8-7-8-|-(8)-12---12-----------|
|-----------------|---------------|--------------|---------------13------|
|-----------------|---------------|--------------|--------------------14-|
|-----------------|---------------|--------------|-----------------------|
|-----------------|---------------|--------------|-----------------------|
|-----------------|---------------|--------------|-----------------------|[/tab]


[tab] +Q Q. E E E E Q. E E E E
|---------------------|-----------------10-|
|------------13-13----|--------------------|
|-(14)-------------14-|-12------12-12------|
|---------------------|--------------------|
|---------------------|--------------------|
|---------------------|--------------------|[/tab]


[tab] +E. S Q Q E E +E E. E. Q E E
|-(10)---8--10--7-8-|-(8)-5-----8--7-8--||
|-------------------|-------------------||
|-------------------|-------------------||
|-------------------|-------------------||
|-------------------|-------------------||
|-------------------|-------------------||[/tab]


[tab] Chorus
+Q Q E E E E H E E E E H E E E E E E E E Q E E
|-(8)--5--5-7-5-3-|--0----8-12-10-8-|---------10-8-7-|--8-7-5---8--7-8-|
|-----------------|-----------------|--8----8--------|-----------------|
|-----------------|-----------------|----------------|-----------------|
|-----------------|-----------------|----------------|-----------------|
|-----------------|-----------------|----------------|-----------------|
|-----------------|-----------------|----------------|-----------------|[/tab]
|
[tab]| Gtr II
| W W W W
|-^1--------------|-^0--------------|-^3-------------|-^0--------------|
|-^1--------------|-^1--------------|-^3-------------|-^1--------------|
|-^2--------------|-^0--------------|-^4-------------|-^2--------------|
|-^3--------------|-^2--------------|-^5-------------|-^2--------------|
|-^3--------------|-^3--------------|-^5-------------|-^0--------------|
|-^1--------------|-^0--------------|-^3-------------|-^0--------------|[/tab]


[tab] +Q Q E E E E H Q E E +Q E Q. E E +E Q. Q E E
|-(8)--5--5-7-5-3-|--0----8--10-10-|-(10)--7-10----7-8-|-(8)-5----8--7-8-|
|-----------------|----------------|-------------------|-----------------|
|-----------------|----------------|-------------------|-----------------|
|-----------------|----------------|-------------------|-----------------|
|-----------------|----------------|-------------------|-----------------|
|-----------------|----------------|-------------------|-----------------|[/tab]
|
[tab]| W W W W
|-^1--------------|-^0-------------|-^-3---------------|-^0--------------|
|-^1--------------|-^1-------------|-^-3---------------|-^1--------------|
|-^2--------------|-^0-------------|-^-4---------------|-^2--------------|
|-^3--------------|-^2-------------|-^-5---------------|-^2--------------|
|-^3--------------|-^3-------------|-^-5---------------|-^0--------------|
|-^1--------------|-^0-------------|-^-3---------------|-^0--------------|[/tab]


[tab] +Q Q E E E E H E E E E H E E E E E E E E Q E E
|-(8)--5--5-7-5-3-|--0----8-12-10-8-|---------10-8-7-|--8-7-5---8--7-8-|
|-----------------|-----------------|--8----8--------|-----------------|
|-----------------|-----------------|----------------|-----------------|
|-----------------|-----------------|----------------|-----------------|
|-----------------|-----------------|----------------|-----------------|
|-----------------|-----------------|----------------|-----------------|[/tab]
|
[tab]| W W W W
|-^1--------------|-^0--------------|-^3-------------|-^0--------------|
|-^1--------------|-^1--------------|-^3-------------|-^1--------------|
|-^2--------------|-^0--------------|-^4-------------|-^2--------------|
|-^3--------------|-^2--------------|-^5-------------|-^2--------------|
|-^3--------------|-^3--------------|-^5-------------|-^0--------------|
|-^1--------------|-^0--------------|-^3-------------|-^0--------------|[/tab]


[tab] +Q Q E E E E H Q E E +Q E Q. E E
|-(8)--5--5-7-5-3-|--0----8--10-10-|-(10)--7-10----7-8-||
|-----------------|----------------|-------------------||
|-----------------|----------------|-------------------||
|-----------------|----------------|-------------------||
|-----------------|----------------|-------------------||
|-----------------|----------------|-------------------||[/tab]
|
[tab]| W W W
|-^1--------------|-^0-------------|-^-3---------------||
|-^1--------------|-^1-------------|-^-3---------------||
|-^2--------------|-^0-------------|-^-4---------------||
|-^3--------------|-^2-------------|-^-5---------------||
|-^3--------------|-^3-------------|-^-5---------------||
|-^1--------------|-^0-------------|-^-3---------------||[/tab]


[tab] Bridge
+E Q. E E E E +Q Q E E E E
|-(8)-5----------5-|-(5)-------------3-|
|------------0-----|-------------0-----|
|----------5---5---|-----------5---5---|
|------------------|-------------------|
|------------------|-------------------|
|------------------|-------------------|[/tab]
|
[tab]| W E E E E E E E E
|------------------|-------------------|
|------------------|---------------1---|
|------------------|---------2---2---2-|
|------------------|--3----3---3-------|
|------------------|-----3-------------|
|------------------|-------------------|[/tab]


[tab] +Q Q E E E E +Q Q E E E E E E Q E E E E
|-(3)-------------3-|-(3)-------------8-|---5-----------5-|
|-------------0-----|-------------0-----|-----------0-----|
|-----------5---5---|-----------5---5---|---------5---5---|
|-------------------|-------------------|-----------------|
|-------------------|-------------------|-----------------|
|-------------------|-------------------|-----------------|[/tab]
|
[tab]| E E E E E E E E E E E E E E E E E E E E E E E E
|---------0---0-3-0-|-------------------|-------------0---|
|--1----1---1-------|---------0---0-3-0-|-------1---1---1-|
|-----0-------------|--0----0---0-------|-2---2---2-------|
|-------------------|-----0-------------|---2-------------|
|-------------------|-------------------|-----------------|
|-------------------|-------------------|-----------------|[/tab]


[tab] +Q Q E E E E +Q Q E E E E +Q Q E E E E E E Q E E E E
|-(5)-------------3-|-(3)-------------3-|-(3)-------------8-|---5-----------5-|
|-------------0-----|-------------0-----|-------------0-----|-----------0-----|
|-----------5---5---|-----------5---5---|-----------5---5---|---------5---5---|
|-------------------|-------------------|-------------------|-----------------|
|-------------------|-------------------|-------------------|-----------------|
|-------------------|-------------------|-------------------|-----------------|[/tab]
|
[tab]| E E E E E E E E E E E E E E E E E E E E E E E E E E E E E E E E
|-------------------|---------0---0-3-0-|-------------------|-------------0---|
|---------------1---|--1----1---1-------|---------0---0-3-0-|-------1---1---1-|
|---------2---2---2-|-----0-------------|--0----0---0-------|-2---2---2-------|
|--3----3---3-------|-------------------|-----0-------------|---2-------------|
|-----3-------------|-------------------|-------------------|-----------------|
|-------------------|-------------------|-------------------|-----------------|[/tab]


[tab] +Q Q E E E E +Q Q E E E E +Q Q E E E E E E Q E E E E
|-(5)-------------3-|-(3)-------------3-|-(3)-------------8-|---5-----------5-|
|-------------0-----|-------------0-----|-------------0-----|-----------0-----|
|-----------5---5---|-----------5---5---|-----------5---5---|---------5---5---|
|-------------------|-------------------|-------------------|-----------------|
|-------------------|-------------------|-------------------|-----------------|
|-------------------|-------------------|-------------------|-----------------|[/tab]
|
[tab]| E E E E E E E E E E E E E E E E E E E E E E E E E E E E E E E E
|-------------------|---------0---0-3-0-|-------------------|-------------0---|
|---------------1---|--1----1---1-------|---------0---0-3-0-|-------1---1---1-|
|---------2---2---2-|-----0-------------|--0----0---0-------|-2---2---2-------|
|--3----3---3-------|-------------------|-----0-------------|---2-------------|
|-----3-------------|-------------------|-------------------|-----------------|
|-------------------|-------------------|-------------------|-----------------|[/tab]


[tab] +Q Q E E E E +Q Q E E E E +Q Q E E E E
|-(5)-------------3-|-(3)-------------3-|-(3)-------------8-||
|-------------0-----|-------------0-----|-------------0-----||
|-----------5---5---|-----------5---5---|-----------5---5---||
|-------------------|-------------------|-------------------||
|-------------------|-------------------|-------------------||
|-------------------|-------------------|-------------------||[/tab]
|
[tab]| E E E E E E E E E E E E E E E E E E E E E E E E
|-------------------|---------0---0-3-0-|-------------------||
|---------------1---|--1----1---1-------|---------0---0-3-0-||
|---------2---2---2-|-----0-------------|--0----0---0-------||
|--3----3---3-------|-------------------|-----0-------------||
|-----3-------------|-------------------|-------------------||
|-------------------|-------------------|-------------------||[/tab]


[tab] Out-Chorus
E E Q Q E E +Q Q E E E E
|---5-----8---7-8-|-(8)---5---5-7-5-3-|
|-----------------|-------------------|
|-----------------|-------------------|
|-----------------|-------------------|
|-----------------|-------------------|
|-----------------|-------------------|[/tab]
|
[tab]| E E E E E E E E E E E E E E E E
|-------------0---|-------------------|
|-------1---1---1-|---------------1---|
|-2---2---2-------|---------2---2---2-|
|---2-------------|--3----3---3-------|
|-----------------|-----3-------------|
|-----------------|-------------------|[/tab]


[tab] H E E E E H E E E E E E E E Q E E
|-0-------8-12-10-8-|-----------10-8-7-|-8-7-5---8---7-8-|
|-------------------|-8-------8--------|-----------------|
|-------------------|------------------|-----------------|
|-------------------|------------------|-----------------|
|-------------------|------------------|-----------------|
|-------------------|------------------|-----------------|[/tab]
|
[tab]| E E E E E E E E E E E E E E E E E E E E E E E E
|-------0----0--3-0-|------------------|-------------0---|
|-1---1---1---------|-------0----0-3-0-|-------1---1---1-|
|---0---------------|-0---0---0--------|-2---2---2-------|
|-------------------|---0--------------|---2-------------|
|-------------------|------------------|-----------------|
|-------------------|------------------|-----------------|[/tab]


[tab] +Q Q E E E E H E E E E H E E E E E E E E Q E E
|-(8)---5---5-7-5-3-|-0-------8-12-10-8-|-----------10-8-7-|-8-7-5---8---7-8-|
|-------------------|-------------------|-8-------8--------|-----------------|
|-------------------|-------------------|------------------|-----------------|
|-------------------|-------------------|------------------|-----------------|
|-------------------|-------------------|------------------|-----------------|
|-------------------|-------------------|------------------|-----------------|[/tab]
|
[tab]| E E E E E E E E E E E E E E E E E E E E E E E E E E E E E E E E
|-------------------|-------0----0--3-0-|------------------|-------------0---|
|---------------1---|-1---1---1---------|-------0----0-3-0-|-------1---1---1-|
|---------2---2---2-|---0---------------|-0---0---0--------|-2---2---2-------|
|--3----3---3-------|-------------------|---0--------------|---2-------------|
|-----3-------------|-------------------|------------------|-----------------|
|-------------------|-------------------|------------------|-----------------|[/tab]


[tab] +Q Q E E E E H E E E E H E E E E E E E E Q E E
|-(8)---5---5-7-5-3-|-0-------8-12-10-8-|-----------10-8-7-|-8-7-5---8---7-8-|
|-------------------|-------------------|-8-------8--------|-----------------|
|-------------------|-------------------|------------------|-----------------|
|-------------------|-------------------|------------------|-----------------|
|-------------------|-------------------|------------------|-----------------|
|-------------------|-------------------|------------------|-----------------|[/tab]
|
[tab]| E E E E E E E E E E E E E E E E E E E E E E E E E E E E E E E E
|-------------------|-------0----0--3-0-|------------------|-------------0---|
|---------------1---|-1---1---1---------|-------0----0-3-0-|-------1---1---1-|
|---------2---2---2-|---0---------------|-0---0---0--------|-2---2---2-------|
|--3----3---3-------|-------------------|---0--------------|---2-------------|
|-----3-------------|-------------------|------------------|-----------------|
|-------------------|-------------------|------------------|-----------------|[/tab]


[tab] +Q Q E E E E H Q E E
|-(8)---5---5-7-5-3-|-0-------8---10-10-|
|-------------------|-------------------|
|-------------------|-------------------|
|-------------------|-------------------|
|-------------------|-------------------|
|-------------------|-------------------|[/tab]
|
[tab]| E E E E E E E E E E E E E E E E
|-------------------|-------0---0--3--0-|
|---------------1---|-1---1---1---------|
|---------2---2---2-|---0---------------|
|--3----3---3-------|-------------------|
|-----3-------------|-------------------|
|-------------------|-------------------|[/tab]


[tab] +Q E Q. E E +E Q.. Q. S
|-(10)---7-10------7-8-|-(8)-5--------------------*|
|----------------------|--------------------------*|
|----------------------|--------------------------*|
|----------------------|--------------------------*|
|----------------------|--------------------------*|
|----------------------|--------------------------*|[/tab]
|
[tab]| E E E E E E E E E E E E E E E E
|----------------------|--------------------0-----*|
|-----------0----0-3-0-|-----------1------1---1---*|
|---0----0-----0-------|--2------2---2------------*|
|------0---------------|-----2--------------------*|
|----------------------|--------------------------*|
|----------------------|--------------------------*|[/tab]



Duration Legend
---------------
W - whole; H - half; Q - quarter; E - 8th; S - 16th; T - 32nd; X - 64th; a - acciaccatura
+ - note tied to previous; . - note dotted; .. - note double dotted
Uncapitalized letters represent notes that are staccato (1/2 duration)
Irregular groupings are notated above the duration line
Duration letters will always appear directly above the note/fret number it represents the
duration for. Duration letters with no fret number below them represent rests. Multi-
bar rests are notated in the form Wxn, where n is the number of bars to rest for. Low
melody durations appear below the staff

Tablature Legend
----------------
h - hammer-on
p - pull-off
b - bend
pb - pre-bend
r - bend release (if no number after the r, then release immediately)
/\ - slide into or out of (from/to "nowhere")
s - legato slide
S - shift slide
<n> - natural harmonic
[n] - artificial harmonic
n(n) - tapped harmonic
~ - vibrato
tr - trill
T - tap
TP - trem. picking
PM - palm muting
/ - tremolo bar dip; n = amount to dip
- tremolo bar down
n/ - tremolo bar up
/n\ - tremolo bar inverted dip
= - hold bend; also acts as connecting device for hammers/pulls
<> - volume swell (louder/softer)
x - on rhythm slash represents muted slash
o - on rhythm slash represents single note slash

Misc Legend
-----------
| - bar
|| - double bar
||o - repeat start
o|| - repeat end
*| - double bar (ending)
: - bar (freetime)
$ - Segno
& - Coda
Tempo markers - <E/E./Q/Q./H/H.> = BPM(8/16=s8/s16), where s8 = swing 8ths, s16 = swing 16ths