Despre Tine

O-zone

Album: Number 1
Genero: Pop

Tablatura (Ver letra)

O-zone
Despre tine

[tab]Intro :)
e------------------------------------------0---------|
B----------------------------0--1--1--0--1----3--0---|
G---2--2--2--0--2--2--0--2-------------------------0-|
D----------------------------------------------------|
A----------------------------------------------------|
E----------------------------------------------------|[/tab]

[tab]e-----------------------------------------0----------|
B--------------------------0--1--1--0--1-----3--0----|
G---0--1--2--2--2--2--0--2-------------------------0-|
D-2--------------------------------------------------|
A----------------------------------------------------|
E----------------------------------------------------|[/tab]

Am F
Ma trezesc cu tine in gind,
C G
Despre tine vreau sa cint,
Melodia mea de dor,
Care ma face tutuor.

Nu raspunsi la SMS,
Eu iti scriu atit de des,
Poate ma-m purtat urit,
Dar sa sti ca ti-am iubit!

Ref:
Am F
Ma innec in ochii tai,
F C
La la la la lei,
C G
Plinge lumia dupa iei,
G Am
La la la la lei,
Iesti un inger pa pamint,
Despre tine cint,
Si zi si noapte,
La la lei [2x]

Daca mergi cu mine in viz,
Am sa te inveti sa riz,
Si am sa scriu pina in sod,
Plinge lumia dupa dur

Nu raspunsi la SMS,
Eu iti scriu atit de des,
Poate ma-m purtat urit,
Dar sa sti ca ti-am iubit!

Ref...

[tab]4x
e-----------------------------------------0----------|
B--------------------------0--1--1--0--1-----3--0----|
G---0--1--2--2--2--2--0--2-------------------------0-|
D-2--------------------------------------------------|
A----------------------------------------------------|
E----------------------------------------------------|[/tab]

[tab]2x
e----------------------------------------------------|
B----------1---------------------1-------------------|
G----0h2------2--0--2p0-----0h2-----2--0--0p2--------|
D--2---------------------2---------------------2-----|
A----------------------------------------------------|
E----------------------------------------------------|[/tab]

2x

[tab]e----------------------------------------------------|
B--1--1--1--0--------1--1--1--0----------------------|
G--------------0-----------------0-----0-------------|
D-----------------2-----------------2----------2-----|
A----------------------------------------------------|
E----------------------------------------------------|[/tab]

Ref...